» » »

Thrice - A Living Dance Upon Dead Minds Tabs

Artists:  A B C D E F G H I J K L M N O P Q R S T U V W X Y Z # 

A Living Dance Upon Dead Minds Tabs

(ver. 1) Click to play this song!
Thrice
 Rating:
4/5 (12 votes)

 A Living Dance Upon Dead Minds lessons Tabs too difficult? Try these video lessons and learn fast
 
                this is the correct intro, and outro... i dunno what the other person was thinking, but it didnt even sound like the song, oh wellm this is a first tab, pretty surue its right.
tuning: DADGBE

INTRO
------------------------------------------------
------------------------------------------------
-------------------12-12-12-14-15-12-14-12-15---
-12-12-12-15-15-15------------------------------
------------------------------------------------
------------------------------------------------
Outro
(2x)
-----------------------------------------
-----------------------------------------
-----------------------------------------
--0-7-8-3---0-7-8-3---0-7-8-3--0-3/7h5-3-
-1------------------0---------5----------
----------3------------------------------
            
Submit corrections


        A Living Dance Upon Dead Minds lessons Hard to play? Try these video lessons and learn fast A Living Dance Upon Dead Minds lessons
        
↑ Back to top | Tablatures and chords for acoustic guitar and electric guitar, ukulele, drums are parodies/interpretations of the original songs. You may use it for private study, scholarship, research or language learning purposes only