» » »

Thrice - A Living Dance Upon Dead Minds Tabs

Artists:  A B C D E F G H I J K L M N O P Q R S T U V W X Y Z # 

A Living Dance Upon Dead Minds Tabs

(ver. 2) Click to play this song!
Thrice
 Rating:
4/5 (4 votes)

 A Living Dance Upon Dead Minds lessons Tabs too difficult? Try these video lessons and learn fast
 
                Thrice-A Living Dance Upon Dead Minds
this is all i got so far

Db tuning

intro
e-----------------------------------------------
b-----------------------------------------------
g----------------------12-12-12--14-15-14-12-14-
d--12-12-12--15-15-15---------------------------
a-----------------------------------------------
d-----------------------------------------------

e------------------------------------------------------
b------------------------------------------------------
g----------------------12-12-12--14-15-14-12-14-12-----
d--12-12-12--15-15-15-------------------------------15-
a------------------------------------------------------
d------------------------------------------------------

outro
e-----------------------------------------------
b-----------------------------------------------
g-----------------------------------------------
d------7-8-------7-8-------7-8-------3/5-7-5-3--
a----8-----8---5-----5---7-----7---0------------
d--8---------5---------7---------0--------------

e------------------------------------------
b------------------------------------------
g------------------------------------------
d--------7-8-------7-8-------7-8----5*-----
a------8-----8---5-----5---7-----7--5*-----
d--7/8---------5---------7----------5*-----
            
Submit corrections


        A Living Dance Upon Dead Minds lessons Hard to play? Try these video lessons and learn fast A Living Dance Upon Dead Minds lessons
        
↑ Back to top | Tablatures and chords for acoustic guitar and electric guitar, ukulele, drums are parodies/interpretations of the original songs. You may use it for private study, scholarship, research or language learning purposes only