» » »

Thrice - Silhouette Tabs

Artists:  A B C D E F G H I J K L M N O P Q R S T U V W X Y Z # 

Silhouette Tabs

(ver. 1) Click to play this song!
Thrice
 Rating:
4/5 (4 votes)

 Silhouette lessons Tabs too difficult? Try these video lessons and learn fast
 
                

DROP C TUNING!!!

0x
0x - mute after strumming
0x
/ \ - slide
... - palm mute
~   - let ring out
b   - bend
r   - release
h   - hammer on
p   - pull off

GUITAR 1'S PARTS:
-----------------
Intro:
D|---------------------------------------------------------------------------|
A|---------------------------------------------------------------------------|
F|---------------5-5-5-----------------5-5-5--3-3-3x---3-3-3-5-5-5--3-3-3x---|
C|0-0-0x---0-0-0-5-5-5--0-0-0x---0-0-0-5-5-5--3-3-3x---3-3-3-5-5-5--3-3-3x---|
G|0-0-0x---0-0-0-3-3-3--0-0-0x---0-0-0-3-3-3--1-1-1x---1-1-1-3-3-3--1-1-1x---|
C|0-0-0x---0-0-0--------0-0-0x---0-0-0---------------------------------------|

Intro Cont'd:
D|---------------------------------------------------------------------------|
A|---------------------------------------------------------------------------|
F|3-3-3-5-5-5----------------------------------------------------------------|
C|3-3-3-5-5-5----------------------------------------------------------------|
G|1-1-1-3-3-3----------------------------------------------------------------|
C|---------------------------------------------------------------------------|

Verse:  "Your eyes..."
D|---------------------------------------------------------------------------|
A|---------------------------------------------------------------------------|
F|---------------5-5-5-----------------5-5-5--3-3-3x---3-3-3-5-5-5--3-3-3x---|
C|0-0-0x---0-0-0-5-5-5--0-0-0x---0-0-0-5-5-5--3-3-3x---3-3-3-5-5-5--3-3-3x---|
G|0-0-0x---0-0-0-3-3-3--0-0-0x---0-0-0-3-3-3--1-1-1x---1-1-1-3-3-3--1-1-1x---|
C|0-0-0x---0-0-0--------0-0-0x---0-0-0---------------------------------------|

Verse Cont'd:   (Repeat lots of times)
D|------------|---------10------------|
A|------------|-------8----8----------|
F|3-3-3-5-5-5-|----10-----------------|
C|3-3-3-5-5-5-|-----------------------|
G|1-1-1-3-3-3-|-----------------------|
C|------------|-----------------------|

Pre Chorus:  (7x)             (Play this on 8th time)
D|-----------------------------|--------------------------------|
A|/10~--8b10r8-----------------|--/10~--8b10r8------------------|
F|-------------10~--9h10p9-----|---------------10~--9-10\-------|
C|-------------------------10\-|--------------------------------|
G|-----------------------------|--------------------------------|
C|-----------------------------|--------------------------------|

Chorus:
D|---------------------------------------------------------------------------|
A|---------------------------------------------------------------------------|
F|--------------------------5----------------------------------5-------------|
C|--------------------------5----------------------------------5-------------|
G|------0-10-12--0--5--3--0-3-0-3-5--------0-10-12--0--5--3--0-3-0-3-5-------|
C|/12\--0-10-12--0--5--3--0---0-3-5--/10\--0-10-12--0--5--3--0---0-3-5-------|

Chorus Cont'd:
D|---------------------------------------------------------------10-10-10-10-|
A|----------------------------------------------------------------8--8--8--8-|
F|-------------------------5---------------------------------5x--------------|
C|-------------------------5---------------------------------5x--------------|
G|-----0-10-12--0--5--3--0-3-0-3-5-------0-10-12--0--5--3--0-3x--------------|
C|/8\--0-10-12--0--5--3--0---0-3-5--/10\-0-10-12--0--5--3--0-----------------|

Post Chorus:  "Speaking in tongues..."
D|---------------------------------------------------------------------------|
A|---------------------------------------------------------------------------|
F|3-3-3x---3-3-3-5-5-5--3-3-3x---3-3-3-5-5-5----------------------------5-5-5|
C|3-3-3x---3-3-3-5-5-5--3-3-3x---3-3-3-5-5-5----------------------0-0-0-5-5-5|
G|1-1-1x---1-1-1-3-3-3--1-1-1x---1-1-1-3-3-3-0-0-0-0-0-0-0-0-0x---0-0-0-3-3-3|
C|-------------------------------------------0-0-0-0-0-0-0-0-0x---0-0-0------|
                                             .................

Post Chorus:              (Repeat lots of times)
D|---------------------|--------10---------------|
A|---------------------|------8----8-------------|
F|---------------5-5-5-|---10--------------------|
C|0-0-0x---0-0-0-5-5-5-|-------------------------|
G|0-0-0x---0-0-0-3-3-3-|-------------------------|
C|0-0-0x---0-0-0-------|-------------------------|

Bridge:  "Again..."
D|----------------------------------|
A|10~----6~----13~---8~----10~------|
F|----------------------------------|
C|----------------------------------|
G|----------------------------------|
C|----------------------------------|

Pre Chorus:  (3x)              (Play on 4th time)
D|-----------------------------|--------------------------------|
A|/10~--8b10r8-----------------|--/10~--8b10r8------------------|
F|-------------10~--9h10p9-----|---------------10~--9-10\-------|
C|-------------------------10\-|--------------------------------|
G|-----------------------------|--------------------------------|
C|-----------------------------|--------------------------------|

Repeat Chorus

Post Chorus:  "Your eyes..."
D|---------------------------------------------------------------------------|
A|---------------------------------------------------------------------------|
F|----------------------------------3-3-3-3-3-3-3-3-3-3-3-3-3-3-3-3-3-3-3-3-3|
C|---------------------0-0-0-0-0x---3-3-3-3-3-3-3-3-3-3-3-3-3-3-3-3-3-3-3-3-3|
G|0-0-0-0-0-0-0-0-0x---0-0-0-0-0x---1-1-1-1-1-1-1-1-1-1-1-1-1-1-1-1-1-1-1-1-1|
C|0-0-0-0-0-0-0-0-0x---0-0-0-0-0x--------------------------------------------|
  .................

Post Chorus Cont'd:
D|---------------------------------------------------------------------------|
A|---------------------------------------------------------------------------|
F|--------------------------------------3-3-3-3-3-3-3-3-3-3-3-3-3-3-3-3-3-3-3|
C|---------------------0-0-0-0-0x-------3-3-3-3-3-3-3-3-3-3-3-3-3-3-3-3-3-3-3|
G|0-0-0-0-0-0-0-0-0x---0-0-0-0-0x-------1-1-1-1-1-1-1-1-1-1-1-1-1-1-1-1-1-1-1|
C|0-0-0-0-0-0-0-0-0x---0-0-0-0-0x---/8---------------------------------------|
  .................

Repeat Chorus

Outro:
D|---------------------------------------------------------------------------|
A|---------------------------------------------------------------------------|
F|---------------------------------------------------------------------------|
C|---------------------------------------------------------------------------|
G|------0-14-15--0--5--3--0-10-0------------0-14-15--0--5--3--0-10-0---------|
C|/12\--0-14-15--0--5--3--0-10-0------/10\--0-14-15--0--5--3--0-10-0---------|

Outro Cont'd:
D|----------------------------------------------------------------10-10-10-10|
A|-----------------------------------------------------------------8--8--8--8|
F|---------------------------------------------------------------------------|
C|---------------------------------------------------------------------------|
G|-----0-14-15--0--5--3--0-10-0-----------0-14-15--0--5--3--0-10x------------|
C|/8\--0-14-15--0--5--3--0-10-0------/10\-0-14-15--0--5--3--0-10x------------|

Ending:
D|-------|
A|-------|
F|-------|
C|0-0-0x-|
G|0-0-0x-|
C|0-0-0x-|

GUITAR 2'S PARTS:
-----------------
Intro:
D|---------------------------------------------------------------------------|
A|---------------------------------------------------------------------------|
F|---------------5-5-5-----------------5-5-5--3-3-3x---3-3-3-5-5-5--3-3-3x---|
C|0-0-0x---0-0-0-5-5-5--0-0-0x---0-0-0-5-5-5--3-3-3x---3-3-3-5-5-5--3-3-3x---|
G|0-0-0x---0-0-0-3-3-3--0-0-0x---0-0-0-3-3-3--1-1-1x---1-1-1-3-3-3--1-1-1x---|
C|0-0-0x---0-0-0--------0-0-0x---0-0-0---------------------------------------|

Intro Cont'd:
D|---------------|
A|---------------|
F|3-3-3-5-5-5----|
C|3-3-3-5-5-5----|
G|1-1-1-3-3-3----|
C|---------------|

Verse:  "Your eyes..." (Repeat intro 2x)

Pre Chorus:
D|---------------------------------------------------------------------------|
A|---------------------------------------------------------------------------|
F|---------------------------------------------------------------------------|
C|/12\--0-10-12--0--5--3--0-10-0-3-5--/10\--0-10-12--0--5--3--0-10-0-3-5-----|
G|---------------------------------------------------------------------------|
C|---------------------------------------------------------------------------|

Pre Chorus Cont'd:
D|---------------------------------------------------------------------------|
A|---------------------------------------------------------------------------|
F|---------------------------------------------------------------------------|
C|/8\--0-10-12--0--5--3--0-10-0-3-5--/10\--0-10-12--0--5--3--0-10x-----------|
G|---------------------------------------------------------------------------|
C|---------------------------------------------------------------------------|

Chorus:
D|---------------------------------------------------------------------------|
A|---------------------------------------------------------------------------|
F|--------------------------5----------------------------------5-------------|
C|--------------------------5----------------------------------5-------------|
G|------0-10-12--0--5--3--0-3-0-3-5--------0-10-12--0--5--3--0-3-0-3-5-------|
C|/12\--0-10-12--0--5--3--0---0-3-5--/10\--0-10-12--0--5--3--0---0-3-5-------|

Chorus Cont'd:
D|---------------------------------------------------------------------------|
A|---------------------------------------------------------------------------|
F|-------------------------5---------------------------------5x--------------|
C|-------------------------5---------------------------------5x--------------|
G|-----0-10-12--0--5--3--0-3-0-3-5-------0-10-12--0--5--3--0-3x--------------|
C|/8\--0-10-12--0--5--3--0---0-3-5--/10\-0-10-12--0--5--3--0-----------------|

Post Chorus:  "Speaking in tongues..."
D|---------------------------------------------------------------------------|
A|---------------------------------------------------------------------------|
F|3-3-3x---3-3-3-5-5-5--3-3-3x---3-3-3-5-5-5----------------------------5-5-5|
C|3-3-3x---3-3-3-5-5-5--3-3-3x---3-3-3-5-5-5----------------------0-0-0-5-5-5|
G|1-1-1x---1-1-1-3-3-3--1-1-1x---1-1-1-3-3-3-0-0-0-0-0-0-0-0-0x---0-0-0-3-3-3|
C|-------------------------------------------0-0-0-0-0-0-0-0-0x---0-0-0------|
                                             .................

Post Chorus:
D|---------------------------------------------------------------------------|
A|---------------------------------------------------------------------------|
F|---------------5-5-5--3-3-3---3-3-3-5-5-5--3-3-3x--3-3-3-5-5-5-------------|
C|0-0-0x---0-0-0-5-5-5--3-3-3---3-3-3-5-5-5--3-3-3x--3-3-3-5-5-5-------------|
G|0-0-0x---0-0-0-3-3-3--1-1-1---1-1-1-3-3-3--1-1-1x--1-1-1-3-3-3-------------|
C|0-0-0x---0-0-0-------------------------------------------------------------|

Bridge:
D|------------------------|
A|------------------------|
F|------------------------|
C|12~----10~---8~----10~--|
G|------------------------|
C|------------------------|

Repeat Pre Chorus

Repeat Chorus

Post Chorus:
D|---------------------------------------------------------------------------|
A|---------------------------------------------------------------------------|
F|7-7-7-7-9-9-9-9-10-10-10-10-12-12-12-12-10-10-10-10-14-14-14-14-12-12-12-12|
C|x-x-x-x-x-x-x-x--x--x--x--x--x--x--x--x--x--x--x--x--x--x--x--x--x--x--x--x|
G|5-5-5-5-7-7-7-7--8--8--8--8-10-10-10-10--8--8--8--8-12-12-12-12-10-10-10-10|
C|---------------------------------------------------------------------------|

Post Chorus Cont'd:
D|---------------------------------------------------------------------------|
A|---------------------------------------------------------------------------|
F|9-9-9-9--7-7-7-7-14-14-14-14-14-14-14-14-14/15\14-14-14-14-14-14-14-14-14--|
C|x-x-x-x--x-x-x-x--x--x--x--x--x--x--x--x--x--x--x--x--x--x--x--x--x--x--x--|
G|7-7-7-7--5-5-5-5-12-12-12-12-12-12-12-12-12/13\12-12-12-12-12-12-12-12-12--|
C|---------------------------------------------------------------------------|

Post Chorus COnt'd:
D|---------------------------------------------------------------------------|
A|---------------------------------------------------------------------------|
F|7-7-7-7-9-9-9-9-10-10-10-10-12-12-12-12-10-10-10-10-14-14-14-14-12-12-12-12|
C|x-x-x-x-x-x-x-x--x--x--x--x--x--x--x--x--x--x--x--x--x--x--x--x--x--x--x--x|
G|5-5-5-5-7-7-7-7--8--8--8--8-10-10-10-10--8--8--8--8-12-12-12-12-10-10-10-10|
C|---------------------------------------------------------------------------|

Post Chorus Cont'd:
D|---------------------------------------------------------------------------|
A|---------------------------------------------------------------------------|
F|9-9-9-9--17/19-19-19-19\14-14-14-14-14-14-14-14/15\14-14-14-14-14-14-14-14-|
C|x-x-x-x---x--x--x--x--x--x--x--x--x--x--x--x--x--x--x--x--x--x--x--x--x--x-|
G|7-7-7-7--15/17-17-17-17\12-12-12-12-12-12-12-12/13\12-12-12-12-12-12-12-12-|
C|---------------------------------------------------------------------------|

Repeat Chorus

Outro:
D|---------------------------------------------------------------------------|
A|---------------------------------------------------------------------------|
F|---------------------------------------------------------------------------|
C|---------------------------------------------------------------------------|
G|------0-14-15--0--5--3--0-10-0------------0-14-15--0--5--3--0-10-0---------|
C|/12\--0-14-15--0--5--3--0-10-0------/10\--0-14-15--0--5--3--0-10-0---------|

Outro Cont'd:
D|---------------------------------------------------------------------------|
A|---------------------------------------------------------------------------|
F|---------------------------------------------------------------------------|
C|---------------------------------------------------------------------------|
G|-----0-14-15--0--5--3--0-10-0-----------0-14-15--0--5--3--0-10x------------|
C|/8\--0-14-15--0--5--3--0-10-0------/10\-0-14-15--0--5--3--0-10x------------|

Ending:
D|--------|
A|--------|
F|--------|
C|0-0-0x--|
G|0-0-0x--|
C|0-0-0x--|

Enjoy.
            
Submit corrections


        Silhouette lessons Hard to play? Try these video lessons and learn fast Silhouette lessons
        
↑ Back to top | Tablatures and chords for acoustic guitar and electric guitar, ukulele, drums are parodies/interpretations of the original songs. You may use it for private study, scholarship, research or language learning purposes only