Home » T » The Weeknd »

The Weeknd - The Hills Tabs

Artists:  A B C D E F G H I J K L M N O P Q R S T U V W X Y Z # 

The Hills Tabs

(ver. 2) Click to play this song!
The Weeknd
Capo 3
Standard Tuning

e|-------------------------------------------------------------------------------|
B|-------------------------------------------------------------------------------|
G|-------------0-----------------------------------------------------------------|
D|---0/2-2-2-2---2-----0---------------------------------------------------------| x5
A|-----------------3-3---3-------------------------------------------------------|
E|-------------------------------------------------------------------------------|

e|--------------------------------------------------------------------------------|
B|--------------------------------------------------------------------------------|
G|---------0------------------------------0-------0-------------------------------|
D|---2-2-2---2--------0--2---0---------------2-2-2---2--------0-------------------|
A|----------------3-3----------X1--------------------------3-3---3----X2----------|
E|--------------------------------------------------------------------------------|

CHORUS
e|----0--0-0--3--0----------------------------0--0-0--3--0------------------------|
B|-------------------1-1--3---1---------------------------1-1---------------------|
G|--------------------------2-----------------------------------------------------|
D|--------------------------------X2-----------------------------X1---------------|
A|--------------------------------------------------------------------------------|
E|--------------------------------------------------------------------------------|

e|-----------------------------------------------------------------------------|
B|-----------------------------------------------------------------------------|
G|-3-----1---------------------------------------------------------------------|
D|----2------X6----------------------------------------------------------------|
A|-----------------------------------------------------------------------------|
E|-----------------------------------------------------------------------------|
//
e|----0--0-0--3--0---------------------------3---3-0-----------------------------------|
B|-----------------1--1 3---1--------------------------2---2--0---0--2-----------------|
G|------------------------2------------------------------------2------^----------------|
D|-------------------------------------------------------------------------------------|
A|-------------------------------------------------------------------------------------|
E|-------------------------------------------------------------------------------------|

BRIDGE
e|----1--1------1--1---------------1--3/5------------1-3/5-----------------------|
B|----------3--------------------------------5-3/1-----------5-3/5---------------|
G|--------------------3-----2-0-2------------------------------------------------| X2
D|-------------------------------------------------------------------------------|
A|-------------------------------------------------------------------------------|
E|-------------------------------------------------------------------------------|            
Submit corrections

↑ Back to top | Tablatures and chords for acoustic guitar and electric guitar, ukulele, drums are parodies/interpretations of the original songs. You may use it for private study, scholarship, research or language learning purposes only