Home » T » The Weeknd »

The Weeknd - I Cant Feel My Face Bass

Artists:  A B C D E F G H I J K L M N O P Q R S T U V W X Y Z # 

I Cant Feel My Face Bass

(ver. 2) Click to play this song!
The Weeknd
G|-----------------------------------------|
D|-----------------------------------------| Hold the first two notes for 1 BAR Each.
A|-----------------------------------------|
E|--3--------1--------5(hold for 2 Bars)---|

Verse 1:
G|--------------------------------------------------------------------------------------------|
D|--------------------------------------------------------------------------------------------|
A|-----------------3h5p3-----------------3h5p3-----------------------------------------3h5p3--|
E|--3--3--3--3--3---------1--1--1--1--1---------5--5--5--5--5-----3~----5--5--5--5------------|

G|--------------------------------------------------------------------------------------------|
D|--------------------------------------------------------------------------------------------|
A|-----------------3h5p3-----------------3h5p3------------------------------------------------|
E|--3--3--3--3--3---------1--1--1--1--1---------5--5--5--5--5--3~~~---------------------------|


Verse 2:
G|--------------------------------------------------------------------------------------------|
D|--------------------------------------------------------------------------------------------|
A|---------------------------------------3h5p3-----------------------------------------3h5p3--|
E|-----------------12\-----1--1--1--1--1---------5--5--5--5--5-----3~~---5--5--5--5-----------|

G|---------------------------------------------------------------------------------------------------|
D|---------------------------------------------------------------------------------------------------| PLAY THIS
A|-----------------3h5p3-----------------3h5p3-----------------------------------------3h5p3---------| PHRASE
E|--3--3--3--3--3---------1--1--1--1--1---------5--5--5--5--5-----3~~---5--5--5--5-------------------| 3 TIMES

CHROUS:
G|--------------------------------------------------------------------------------------------|
D|--------------------------------------------------------------------------------------------| PLAY THIS
A|-----------------3h5p3-----------------3h5p3-----------------------------------------3h5p3--| PHRASE
E|--3--3--3--3--3---------1--1--1--1--1---------5--5--5--5--5-----3~----5--5--5--5------------| 4 TIMES

Break:
G|-----------------------------------------|
D|-----------------------------------------|
A|-----------------------------------------|
E|--3--------1--------5(hold for 2 Bars)---|


Verse/Chorus/Outro
G|--------------------------------------------------------------------------------------------|
D|--------------------------------------------------------------------------------------------| PLAY THIS
A|-----------------3h5p3-----------------3h5p3-----------------------------------------3h5p3--| PHRASE
E|--3--3--3--3--3---------1--1--1--1--1---------5--5--5--5--5-----3~~---5--5--5--5------------| 4 TIMES


End with:
G|--------------------------------------------------------------------------------------------|
D|--------------------------------------------------------------------------------------------|
A|-----------------3h5p3-----------------3h5p3------------------------------------------------|
E|--3--3--3--3--3---------1--1--1--1--1---------5--5--5--5--5-----3---------------------------|
            
Submit corrections

↑ Back to top | Tablatures and chords for acoustic guitar and electric guitar, ukulele, drums are parodies/interpretations of the original songs. You may use it for private study, scholarship, research or language learning purposes only