Home » T » The Weeknd »

The Weeknd - The Hills Tabs

Artists:  A B C D E F G H I J K L M N O P Q R S T U V W X Y Z # 

The Hills Tabs

(ver. 3) Click to play this song!
The Weeknd
intro                       verse
 
e|---------------------||-----------------------------------------|------------------------------------|
B|---------------------||-----------------------------------------|------------------------------------|
G|---------------------||--5--------------------------------------|------------------------------------|
D|--3---3----3----3----||--5--------------------------------------|----------------------3-------------|
A|--3---3----3----3----||--3-------8\--6-------8-\-3-----6-----8--|--10------8--6--------1--3-----6----|
E|--1---1----1----1----||----------6\--4-------6-\-1-----4-----6--|--8-------6--4-----------1-----4----|
 
 
[Chorus]
 
e|--3-3-3-3-7p3------||-------------------------------------------|--------------------------------------|
B|--------------4h5--||-------------------------------------------|--------------------------------------|
G|-------------------||:--5~------3-----------3----------------3--|--5~------3-----------3--------------:|
D|-------------------||---5~------3---6~------3---3~-----6~----3--|--5~------3--6~-------3---3~----6~----|
A|-------------------||---3~------1---6~------1---3~-----6~----1--|--3~-----`1--6~-------1---3~----6~----|
E|-------------------||---------------4~----------1~-----4~-------|-------------4~-----------1~----4~----|
 
 
[Verse 2]
 
e|-----------------------------------------|------------------------------------|
B|-----------------------------------------|------------------------------------|
G|--5--------------------------------------|------------------------------------|
D|--5--------------------------------------|----------------------3-------------|
A|--3-------8\--6-------8-\-3-----6-----8--|--10------8--6--------1--3-----6----|
E|----------6\--4-------6-\-1-----4-----6--|--8-------6--4-----------1-----4----|
 
 
[Chorus]
 
e|--3-3-3-3-7p3------||-------------------------------------------|--------------------------------------|
B|--------------4h5--||-------------------------------------------|--------------------------------------|
G|-------------------||:--5~------3-----------3----------------3--|--5~------3-----------3--------------:|
D|-------------------||---5~------3---6~------3---3~-----6~----3--|--5~------3--6~-------3---3~----6~----|
A|-------------------||---3~------1---6~------1---3~-----6~----1--|--3~-----`1--6~-------1---3~----6~----|
E|-------------------||---------------4~----------1~-----4~-------|-------------4~-----------1~----4~----|
 
 
[Bridge]
                                                                                      2xs
e|---15---15---15---15--|-15---15---15---15--|--15---15---15---15--|--15---15---15---15---|
B|---16---16---16---16--|-16---16---16---16--|--15---15---15---15--|--15---15---15---15---|
G|:---------------------|--------------------|---------------------|--17---17---17---17--:|
D|----------------------|--------------------|---------------------|----------------------|
A|----------------------|--------------------|---------------------|----------------------|
E|----------------------|--------------------|---------------------|----------------------|
 
 
[Chorus]
 
e|--3-3-3-3-7p3------||----------------------------------|-----------------------------------|
B|--------------4h5--||----------------------------------|-----------------------------------|
G|-------------------||:--5-----3--------3------------3--|---5------3---------3-------------:|
D|-------------------||---5-----3--6-----3--3----6----3--|---5------3--6------3--3-----6-----|
A|-------------------||---3-----1--6-----1--3----6----1--|---3------1--6------1--3-----6-----|
E|-------------------||------------4--------1----4-------|-------------4---------1-----4-----|
            
Submit corrections

↑ Back to top | Tablatures and chords for acoustic guitar and electric guitar, ukulele, drums are parodies/interpretations of the original songs. You may use it for private study, scholarship, research or language learning purposes only