Home » T » The Weeknd »

The Weeknd - The Hills Bass

Artists:  A B C D E F G H I J K L M N O P Q R S T U V W X Y Z # 

The Hills Bass

(ver. 1) Click to play this song!
The Weeknd
CHORUS/SOFTLY IN VERSE

G|---------------------------------------------------------------------------|
D|---------------------------------------------------------------------------|
A|---------------------------------------------------------------------------|
E|--8----------8------8---8-------6--4----------4------4---4-------6--1------|

G|---------------------------------------------------------------------------|
D|---------------------------------------------------------------------------|
A|---------------------------------------------------------------------------|
E|----1------1---1-------3--4----------4------4---4--------------------------|

Here's also an alternative way to play this, if you don't like moving too much
on the fretboard, or prefer two strings.

CHORUS/SOFTLY IN VERSE

G|---------------------------------------------------------------------------|
D|---------------------------------------------------------------------------|
A|--3----------3------3---3-------1--------------------------------1---------|
E|-----------------------------------4----------4------4---4----------1------|

G|---------------------------------------------------------------------------|
D|---------------------------------------------------------------------------|
A|---------------------------------------------------------------------------|
E|----1------1---1-------3--4----------4------4---4--------------------------|
            
Submit corrections

↑ Back to top | Tablatures and chords for acoustic guitar and electric guitar, ukulele, drums are parodies/interpretations of the original songs. You may use it for private study, scholarship, research or language learning purposes only