Home » T » The Last Shadow Puppets »

The Last Shadow Puppets - Pattern Tabs

Artists:  A B C D E F G H I J K L M N O P Q R S T U V W X Y Z # 

Pattern Tabs

(ver. 1) Click to play this song!
The Last Shadow Puppets
[Intro & Verse] 

   Em                Esus4               Am           Em   Am           Amadd2  Em

e|-8---8----8--------10-10--10-10-8------10-10--10-10-8----10--10--10-10--12----8---------|
B|-10--10---10-------10-10--10-10-10-----10-10--10-10-10---10--10--10-10--10----10--------|
G|-9---9----9--------9--9---9--9--9------10-10--10-10-9----10--10--10-10--10----9---------|
D|----------------------------------------------------------------------------------------|
A|----------------------------------------------------------------------------------------|
E|----------------------------------------------------------------------------------------|
                                                                                

[Bridge]

   C                Am                Em                Am  

e|-8---8---8--8-----10--10--10--10----12--12--12--12----10--12--10--10--10--10--10--12--10--10--|
B|-10--10--10-10----10--10--10--10----13--13--13--13----10--10--10--12--10--13--10--10--10--13--|
G|-10--10--10-10----10--10--10--10----14--14--14--14----10--10--10--10--10--10--10--10--10--10--|
D|----------------------------------------------------------------------------------------------|
A|----------------------------------------------------------------------------------------------|
E|----------------------------------------------------------------------------------------------|

   C                Am                B7             Em

e|-8---8---8--8-----10--10--10--10----7--7--7--7-----12--12--12--12-----------------------------|
B|-10--10--10-10----10--10--10--10----9--9--9--9-----13--13--13--13-----------------------------|
G|-10--10--10-10----10--10--10--10----7--7--7--7-----14--14--14--14-----------------------------|
D|------------------------------------9--9--9--9------------------------------------------------|
A|----------------------------------------------------------------------------------------------|
E|----------------------------------------------------------------------------------------------|


[Chorus 1 & 2]

   C                G             D             B7   Em

e|-8---8---8--8-----8--8--8--8----7--7--7--7----7----12--12--12--12-------------------|
B|-10--10--10-10----8--8--8--8----8--8--8--8----x----13--13--13--13-------------------|
G|-10--10--10-10----9--9--9--9----7--7--7--7----7----14--14--14--14-------------------|
D|------------------10-10-10-10---9--9--9--9----6-------------------------------------|
A|------------------10-10-10-10-----------------7-------------------------------------|
E|------------------------------------------------------------------------------------|

   C                G             B7                 Em

e|-8---8---8--8-----8--8--8--8----7--7--7--7----7----12--12--12--12-------------------|
B|-10--10--10-10----8--8--8--8----9--9--9--9----x----13--13--13--13-------------------|
G|-10--10--10-10----9--9--9--9----7--7--7--7----7----14--14--14--14-------------------|
D|------------------10-10-10-10---9--9--9--9----6-------------------------------------|
A|------------------10-10-10-10---7--7--7--7----7-------------------------------------|
E|------------------------------------------------------------------------------------|

   C                G             D             B7   Em

e|-8---8---8--8-----8--8--8--8----7--7--7--7----7----12--12--12--12-------------------|
B|-10--10--10-10----8--8--8--8----8--8--8--8----x----13--13--13--13-------------------|
G|-10--10--10-10----9--9--9--9----7--7--7--7----7----14--14--14--14-------------------|
D|------------------10-10-10-10---9--9--9--9----6-------------------------------------|
A|------------------10-10-10-10-----------------7-------------------------------------|
E|------------------------------------------------------------------------------------|

   C                C                Cm6             Cm6 (Very tricky chord!!!!)

e|-8---8---8--8-----8---8---8---8----8--8--8--8------8--8--8--8-----------------------|
B|-10--10--10-10----10--10--10--10---9--9--9--9------9--9--9--9-----------------------|
G|-10--10--10-10----10--10--10--10---7--7--7--7------7--7--7--7-----------------------|
D|-----------------------------------x--x--x--x------x--x--x--x-----------------------|
A|-----------------------------------8--8--8--8------8--8--8--8-----------------------|
E|------------------------------------------------------------------------------------|


[Outro]

   Em                Esus4               Am           Em   Am           Amadd2  Em

e|-8---8----8--------10-10--10-10-8------10-10--10-10-8----10--10--10-10--12----8---------|
B|-10--10---10-------10-10--10-10-10-----10-10--10-10-10---10--10--10-10--10----10--------|
G|-9---9----9--------9--9---9--9--9------10-10--10-10-9----10--10--10-10--10----9---------|  x3
D|----------------------------------------------------------------------------------------|
A|----------------------------------------------------------------------------------------|
E|----------------------------------------------------------------------------------------|

   C                C                Cm6             Cm6 (Very tricky chord!!!!)

e|-8---8---8--8-----8---8---8---8----8--8--8--8------8--8--8--8-----------------------|
B|-10--10--10-10----10--10--10--10---9--9--9--9------9--9--9--9-----------------------|
G|-10--10--10-10----10--10--10--10---7--7--7--7------7--7--7--7-----------------------|
D|-----------------------------------x--x--x--x------x--x--x--x-----------------------|
A|-----------------------------------8--8--8--8------8--8--8--8-----------------------|
E|------------------------------------------------------------------------------------|            
Submit corrections

↑ Back to top | Tablatures and chords for acoustic guitar and electric guitar, ukulele, drums are parodies/interpretations of the original songs. You may use it for private study, scholarship, research or language learning purposes only