Home » T » The Last Shadow Puppets »

The Last Shadow Puppets - My Mistakes Were Made For You Bass

Artists:  A B C D E F G H I J K L M N O P Q R S T U V W X Y Z # 

My Mistakes Were Made For You Bass

(ver. 1) Click to play this song!
The Last Shadow Puppets
G|-------------------------|
D|--------0----------------|
A|-------------3---1-------|x4
E|--3--3-----3---3-----1-1-|

Verse:
G|-----------------------------------2-----------------------------------------|
D|--------0----------------------3---------------------------------------------|
A|-------------3---1-------3--3----3---3~-------1---0---1---------3---1---1----|x3
E|--3--3-----3---3-----3-3-------------------1----1---1----1-3--3----3---3---3-|

G|-----------------------------------2---------------------------------------|
D|--------0----------------------3-------------------------------------------|
A|-------------3---1-------3--3----3---3~-------1---0---1----5-5-5-5-5-5-5-5-|
E|--3--3-----3---3-----3-3-------------------1----1---1----1-----------------|

Chorus:
G|--------------------------------------------------------------|
D|--------------------------------------------------------------|
A|3-x-3-x-3-x-3-x-5-x-5-x-5-x-5-x-3-x-3-x-3-x-3-x-5~----3---1---|
E|--------------------------------------------------------------|

Instrumental:
G|-------------------------|
D|--------0----------------|
A|-------------3---1-------|x2
E|--3--3-----3---3-----1-1-|

Verse:
G|-----------------------------------2-----------------------------------------|
D|--------0----------------------3---------------------------------------------|
A|-------------3---1-------3--3----3---3~-------1---0---1---------3---1---1----|
E|--3--3-----3---3-----3-3-------------------1----1---1----1-3--3----3---3---3-|

G|-----------------------------------2---------------------------------------|
D|--------0----------------------3-------------------------------------------|
A|-------------3---1-------3--3----3---3~-------1---0---1----5-5-5-5-5-5-5-5-|
E|--3--3-----3---3-----3-3-------------------1----1---1----1-----------------|

Chorus:
G|--------------------------------------------------------------|
D|--------------------------------------------------------------|
A|3-x-3-x-3-x-3-x-5-x-5-x-5-x-5-x-3-x-3-x-3-x-3-x-5~----3---1---|
E|--------------------------------------------------------------|

Instrumental:
G|-------------------|  |-----------------------------4--------|
D|------0------------|  |-------------------------3-------3----|
A|----------3---1----|x2|------3---5---3----5--5----5---5----5-|
E|3--3----3---3----3-|  |5--5----5---5----5--------------------|

G|--------------------------------------|
D|--------------------------------------|
A|------3---5---------------------------|
E|3--3----3---3-6--3-0--0--7-0-3-0-5--0-|

Verse:
G|-----------------------------4-------------------------------------------|
D|----------4--------------3-------3---------------------------------------|
A|------5-------5----5--5----5---5----5-------5---3--------7-7-7-7-7-7-7-7-|
E|5--5----5---5----5--------------------3--3----3---3-6--3-----------------|

Chorus:
G|--------------------------------|  |-------------------------------|
D|--------------------------------|  |-------------------------------|
A|5-x-5-x-5-x-5-x-7-x-7-x-7-x-7-x-|x3|5-x-5-x-5-x-5-x-7~-----3---1---|
E|--------------------------------|  |-------------------------------|

Outro:
G|-------------------------|
D|-------------------------|
A|-------------------------|
E|3-5-5--------------------|

Occasionally, play this:
G|-------------------------|
D|---------7~--------------|
A|-------------------------|
E|3-5-5---------3-5-5------|

Please rate :)
            
Submit corrections

↑ Back to top | Tablatures and chords for acoustic guitar and electric guitar, ukulele, drums are parodies/interpretations of the original songs. You may use it for private study, scholarship, research or language learning purposes only