Home » T » The Last Shadow Puppets »

The Last Shadow Puppets - Gas Dance Tabs

Artists:  A B C D E F G H I J K L M N O P Q R S T U V W X Y Z # 

Gas Dance Tabs

(ver. 1) Click to play this song!
The Last Shadow Puppets
VERSE [0:41]

e|-------------------------------------------------------------|
B|-------------------------------------------------------------|
G|---9--------------9--------------9--------------9------------|
D|-----9-7------------9--------------9-7------------9----------|
A|-7--------------7-----7--------7--------------7-----7--------|
E|-------------------------------------------------------------|

e|----------------------------------------7--------------------|
B|----------------------------------------8--------------------|
G|--------------------5-4----7-5-7--------9--------------------|
D|-----5-4--------4-5--------------7------9--------------------|
A|-3-6------------------------------------7--------------------|
E|----------------------------------------x--------------------|

VERSE [0:55]

At this point the guitar line is doubled. Guitar 1 and 2 are
played at the same time.

Guitar 1:

e|-------------------------------------------------------------|
B|-------------------------------------------------------------|
G|---9--------------9--------------9--------------9------------|
D|-----9-7------------9--------------9-7------------9----------|
A|-7--------------7-----7--------7--------------7-----7--------|
E|-------------------------------------------------------------|

e|-------------------------------------------------------------|
B|-------------------------------------------------------------|
G|--------------------5-4----7-5-7-----------------------------|
D|-----5-4--------4-5--------------7----7/7/7------------------|
A|-3-6---------------------------------------------------------|
E|-------------------------------------------------------------|

Guitar 2:

e|-------------------------------------------------------------|
B|-------------------------------------------------------------|
G|-------------------------------------------------------------|
D|---2--------------2--------------2--------------2------------|
A|-----2-0------------2--------------2-0------------2----------|
E|-0--------------0-----0--------0--------------0-----0--------|

e|-------------------------------------------------------------|
B|-------------------------------------------------------------|
G|-------------------------------------------------------------|
D|-----------------------10-9----------------------------------|
A|------10-9--------9-10---------12-10-12----------------------|
E|-8-11-----------------------------------12----12/12/12-------|

CHORUS [1:50]

e|----------------7-----------------------7--------------------|
B|----------------8-----------------------8--------------------|
G|----------------9-----------------------9--------------------|
D|----------------9-----------------------9--------------------|
A|-----------7----7------------------7----7--------------------|
E|-8----7---------x--------8----7---------x--------------------|

e|----------------7-----------------------7--------------------|
B|----------------8-----------------------8--------------------|
G|----------------9-----------------------9--------------------|
D|----------------9-----------------------9--------------------|
A|-----------7----7-----------------------7--------------------|
E|-8----7---------x--------8----1----0----x--------------------|

BREAK [2:06]

e|-------------------------------------------------------------|
B|-------------------------------------------------------------|
G|-------------------------------------------------------------|
D|-------------------------------------------------------------|   x4
A|-----7-------7---7-------7-------7---7-----------------------|
E|-0-0---0-0-0---0-----0-0---0-0-0---0-------------------------|

e|-------------------------------------------------------------|
B|-------------------------------------------------------------|
G|-------------------------------------------------------------|
D|-------------------------------------------------------------|   x4
A|-----7-------7---7-------7-----------------------------------|
E|-0-0---0-0-0---0-----0-0---0-7-5-3-5-------------------------|

e|-------------------------------------------------------------|
B|-------------------------------------------------------------|
G|-------------------------------------------------------------|   x2
D|-------------------------------------------------------------|
A|-----7-------7---7-------7---9-7-5-7-------------------------|
E|-0-0---0-0-0---0-----0-0---0---------------------------------|

e|-------------------------------------------------------------|
B|-------------------------------------------------------------|
G|-------------------------------------------------------------|
D|-------------------------------------------------------------|
A|-----7---9-7-5-7-2~------------------------------------------|
E|-0-0---0-----------------------------------------------------|

SOLO [2:46]

e|-------------------------------------------------------------|
B|-------------------------------------------------------------|
G|-12~----11~----9~---7-9--12~----14~----16~-------------------|
D|-------------------------------------------------------------|
A|-------------------------------------------------------------|
E|-------------------------------------------------------------|

e|-20~----19~----17~----15----20b22r20-19---16---14------------|
B|-------------------------------------------------------------|
G|-------------------------------------------------------------|
D|-------------------------------------------------------------|
A|-------------------------------------------------------------|
E|-------------------------------------------------------------|

CHORUS [3:00]

e|-------------------------------------------------------------|
B|-------------------------------------------------------------|
G|-------------------------------------------------------------|
D|-------------------------------------------------------------|
A|-----------8----------------------8--------------------------|
E|-8----7-----------------8----7-------------------------------|

e|-------------------------------------------------------------|
B|-------------------------------------------------------------|
G|-------------------------------------------------------------|
D|-------------------------------------------------------------|
A|-------------------------------------------------------------|
E|-8----10----3----7----8----1----0-----------8----1----0------|

OUTRO [3:19]

e|-20--19/17/15~---15/17/19-20~-pb22r20-19-20-19~/--------------|
B|-------------------------------------------------------------|
G|-------------------------------------------------------------|
D|-------------------------------------------------------------|
A|-------------------------------------------------------------|
E|-------------------------------------------------------------|            
Submit corrections

↑ Back to top | Tablatures and chords for acoustic guitar and electric guitar, ukulele, drums are parodies/interpretations of the original songs. You may use it for private study, scholarship, research or language learning purposes only