Home » T » The Last Shadow Puppets »

The Last Shadow Puppets - Dracula Teeth Tabs

Artists:  A B C D E F G H I J K L M N O P Q R S T U V W X Y Z # 

Dracula Teeth Tabs

(ver. 1) Click to play this song!
The Last Shadow Puppets
[Intro]

e|----------------------------|
B|----------------------------|
G|----------------------------|
D|----------------------------|
A|--0-2-4-5-------------------|
E|-2--------------------------|


[Verse]

e|-2----4----2---------4---2-------|
B|-2----5----3---------5---3-------|
G|-2----6----4---------6---4-------| x2
D|-4----6----4---------6---4-------|
A|-4----4----2---------4---2-------|
E|-2----x----x---------x---x-------|

[0.25]
e|--------------------------------------|
B|--------------------------------------|
G|--------------------------------------|
D|--------------------------------------|
A|--------------------------------------|
E|--2--9-9-9-9-2--9-9-9-9-2--9-9-9-9-2--|


[Chorus] [0.33]

e|-4---4-------2---2-------|
B|-5---5-------3---3-------|
G|-6---6-------4---4-------|
D|-6---6-------4---4-------| x2
A|-4---4-------2---2-------|
E|-x---x-------x---x-------|

[Verse 2]

Same as first verse with the inclusion of this little lift riff at 1.00

e|--------------------------1---1----1---|
B|----2--4/6-------2--4/6----2---2----2--|
G|--4--------4---4------------3---3-3--3-|
D|---------------------------------------|
A|---------------------------------------|
E|---------------------------------------|

e|----------------------------|
B|----------------------------|
G|----------------------------|
D|----------------------------|
A|----------------------------|
E|--2-9999--2-9999--2-9999-2--|


[Chorus] [1.20]

e|-4---4-------2---2-------|
B|-5---5-------3---3-------|
G|-6---6-------4---4-------|
D|-6---6-------4---4-------| x2
A|-4---4-------2---2-------|
E|-x---x-------x---x-------|

[Post chorus]

e|-5----2------2-----0-----2----5------|
B|-7----3------2-----0-----3----7------|
G|-7----4------2-----1-----4----7------|
D|-7----4------4-----2-----4----7------|
A|-5----2------4-----2-----2----5------|
E|-x----x------2-----0-----x----x------|

[Outro 2.00]

e|----------------------------|
B|----------------------------|
G|----------------------------|
D|----------------------------| x8
A|--0-2-4-5-------------------|
E|-2--------------------------|            
Submit corrections

↑ Back to top | Tablatures and chords for acoustic guitar and electric guitar, ukulele, drums are parodies/interpretations of the original songs. You may use it for private study, scholarship, research or language learning purposes only