Home » S » Stevie Ray Vaughan »

Stevie Ray Vaughan - Pride And Joy Bass

Artists:  A B C D E F G H I J K L M N O P Q R S T U V W X Y Z # 

Pride And Joy Bass

(ver. 3) Click to play this song!
Stevie Ray Vaughan
 Rating:
3.9/5 (24 votes)
                Bass Tabs

Bassist: Tommy Shannon

Tuning : EADG
Tempo: 116 bpm 
Key: D+

Intro: 00:01 
G|------------------------------------------|-
D|------------------------------------------|-
A|--        Guitar      --------------------|-
E|------------------------------------4-/-6-|-  

Bass / drums start: 00:21
G|--------55-8-5------||--------55-8-5------|-
D|---55-8---------8-5-||---55-8---------8-5-|-
A|56------------------||56------------------|-
E|--------------------||--------------------|-

G|--------------------||--------55-8-5------|-
D|--------33-6-3------||---55-8---------8-5-|-
A|---33-6---------6-3-||56------------------|-
E|34------------------||--------------------|-

G|------------||------------||--------56--8-5-----|-
D|---------5g-||---------3g-||---55-8----------8g-|-
A|---55-8-----||---33-6-----||56------------------|-
E|56----------||34----------||--------------------|-



Verse1: 00:31
G|---------5g-||---------5g-||--------55g-8-6-5----|-
D|---55--8----||---55-8-----||---55-8-----------8g-|-
A|56----------||56----------||56-------------------|-
E|------------||------------||---------------------|-
Well you've heard about love givin' sight to the blind
My baby's lovin' cause the sun to shine

G|------------||------------||--------55g-8-5------|-
D|---------3g-||---------3g-||---55-8----------8-5-|-
A|---33-6-----||---33-6-----||56-------------------|-
E|34----------||34----------||---------------------|-
She's my sweet little thing she's my pride and joy

G|------------||------------||---------56g--8-5----|-
D|---------5g-||---------3g-||---55-8-----------8g-|-
A|---55-8-----||---33-6-----||-6-------------------|-
E|56----------||34----------||---------------------|-
She's my sweet little baby I'm her little lover boy


Verse2: 00:53
G|---------5g-||---------5g-||--------55g-8-6-5----|-
D|---55--8----||---55-8-----||---55-8-----------8g-|-
A|56----------||56----------||56-------------------|-
E|------------||------------||---------------------|-
Yeah I love my baby heart and soul
Love like ours won't never grow old

G|------------||------------||--------55g-8-5------|-
D|---------3g-||---------3g-||---55-8----------8-5-|-
A|---33-6-----||---33-6-----||56-------------------|-
E|34----------||34----------||---------------------|-
She's my sweet little thing she's my pride and joy

G|------------||------------||---------56g--8-5----|-
D|---------5g-||---------3g-||---55-8-----------8g-|-
A|---55-8-----||---33-6-----||-6-------------------|-
E|56----------||34----------||---------------------|-
She's my sweet little baby I'm her little lover boy


Verse3 Stabs: 01:16
G|-----------||-----------||-----------||-----------|-
D|-----------||-----------||-----------||-----------|-
A|56.--------||56.--------||56.--------||56/7/8/9---|-
E|-----------||-----------||-----------||-----------|-
Yeah I love my lady she's long and lean
You mess with her you'll see a man get mean

G|------------||------------||--------55g-8-5------|-
D|---------3g-||---------3g-||---55-8----------8-5-|-
A|---33-6-----||---33-6-----||56-------------------|-
E|34----------||34----------||---------------------|-
She's my sweet little thing she's my pride and joy

G|------------||------------||---------56g--8-5----|-
D|---------5g-||---------3g-||---55-8-----------8g-|-
A|---55-8-----||---33-6-----||-6-------------------|-
E|56----------||34----------||---------------------|-
She's my sweet little baby I'm her little lover boy


Instrumental(1): 01:39 Play X2
G|----------5-||----------5-||--------5-8-8/6-6/5--|-
D|---5-5-8----||---5-5-8----||---55-8-------------8|-
A|56----------||56----------||56-------------------|-
E|------------||------------||---------------------|-

G|------------||------------||--------55g-8-6-5----|-
D|---------3g-||---------3g-||---55-8-----------8g-|-
A|---33-6-----||---33-6-----||56-------------------|-
E|34----------||34----------||---------------------|-

G|------------||------------||---------56g--8-5----|-
D|---------5g-||---------3g-||---55-8-----------8g-|-
A|---55-8-----||---33-6-----||-6-------------------|-
E|56----------||34----------||---------------------|-


Verse4 Stabs: 02:24
G|-----------||-----------||-----------||-----------|-
D|-----------||-----------||-----------||-----------|-
A|56.--------||56.--------||56.--------||56/7/8/9---|-
E|-----------||-----------||-----------||-----------|-
Well I love my baby like the finest wine
Stick with her until the end of time

G|------------||------------||--------55g-8-5------|-
D|---------3g-||---------3g-||---55-8----------8-5-|-
A|---33-6-----||---33-6-----||56-------------------|-
E|34----------||34----------||---------------------|-
She's my sweet little thing she's my pride and joy

G|------------||------------||---------56g--8-5----|-
D|---------5g-||---------3g-||---55-8-----------8g-|-
A|---55-8-----||---33-6-----||-6-------------------|-
E|56----------||34----------||---------------------|-
She's my sweet little baby I'm her little lover boy


Verse5: 02:47
G|---------5g-||---------5g-||--------55g-8-6-5----|-
D|---55--8----||---55-8-----||---55-8-----------8g-|-
A|56----------||56----------||56-------------------|-
E|------------||------------||---------------------|-
Yeah I love my baby heart and soul
Love like ours won't never grow old

G|------------||------------||--------55g-8-5------|-
D|---------3g-||---------3g-||---55-8----------8-5-|-
A|---33-6-----||---33-6-----||56-------------------|-
E|34----------||34----------||---------------------|-
She's my sweet little thing she's my pride and joy

G|------------||------------||---------56g--8-5----|-
D|---------5g-||---------3g-||---55-8-----------8g-|-
A|---55-8-----||---33-6-----||-6-------------------|-
E|56----------||34----------||---------------------|-
She's my sweet little baby I'm her little lover boy


Instrumental(2) / outro: 03:10 Play X1
G|---------5g-||---------5g-||--------55g-8-6-5----|-
D|---55--8----||---55-8-----||---55-8-----------8g-|-
A|56----------||56----------||56-------------------|-
E|------------||------------||---------------------|-

G|------------||------------||--------55g--8-5-----|-
D|---------3g-||---------3g-||---55-8----------8-5-|-
A|---33-6-----||---33-6-----||56-------------------|-
E|34----------||34----------||---------------------|-


G|------------||------------||--------5-8--5g------|-
D|---------5g-||---------3g-||---5-8----------6r~~-|-
A|---55-8-----||---33-6-----||-6g------------------|-
E|56----------||34----------||---------------------|-



End: 03:44            
Submit corrections

↑ Back to top | Tablatures and chords for acoustic guitar and electric guitar, ukulele, drums are parodies/interpretations of the original songs. You may use it for private study, scholarship, research or language learning purposes only