Home » S » Stevie Ray Vaughan »

Stevie Ray Vaughan - Pride And Joy Tabs

Artists:  A B C D E F G H I J K L M N O P Q R S T U V W X Y Z # 

Pride And Joy Tabs

(ver. 2) Click to play this song!
Stevie Ray Vaughan
 Rating:
4/5 (4 votes)
                --0-0-0-0-0-0-0-0-0---7-7-7-7-7-7-7-7---0-0-0-0-0-0-0-0-
--3/5-5-5-5-5-5-5-5---8-8-8-8-8-8-8-8---5-5-5-5-5-5-5-5-
--------------------------------------------------------
--------------------------------------------------------
--------------------------------------------------------
--------------------0-----------------0-----------------

----------------------
----------------------
---2^-2-0-------------
----------2-----------
----------------------
----------------------

---0-----0---0--------0----0-----0----2--0-
---0-----0---0--------0----0-----0----2--0-
--------------------------------------2--0-
--------------------2---------------------- 2 times
-----------2----4--------------2-----------
-0----3-------------------3----------------

---0-----0---0--------0----0-----0----2--0-
---0-----0---0--------0----0-----0----2--0-
--------------------2-----------------2--0-
-----------2----4--------------2-----------   2 times
-0----3-------------------3----------------
-------------------------------------------

solo at the end:

--0-0-0-0-0-0-0-0-0-0-0-0-0----
--2/3-3-3-3-3-3/5-5-5-5-5-5----
--3/4-4-4-4-4-4/6-6-6-6-6-6----
-------------------------------     2 times
-------------------------------
-------------------------------

----0--0--0--0--0--0--0--0--0--0--0--0--
--/12-12-12-12-12-12/15-15-15-15-15-15--
--/13-13-13-13-13-13/16-16-16-16-16-16--
----------------------------------------      2 times
----------------------------------------
----------------------------------------

good luck
louis-charles
            
Submit corrections

↑ Back to top | Tablatures and chords for acoustic guitar and electric guitar, ukulele, drums are parodies/interpretations of the original songs. You may use it for private study, scholarship, research or language learning purposes only