» » »

Stevie Ray Vaughan - Testify Tabs

Artists:  A B C D E F G H I J K L M N O P Q R S T U V W X Y Z # 

Testify Tabs

(ver. 1) Click to play this song!
Stevie Ray Vaughan
 Rating:
4/5 (4 votes)

 Testify lessons Tabs too difficult? Try these video lessons and learn fast
 
                This is my next favourite SRV song next to Rude Mood.
Take your time and play it slowly then slowly increase your speed and soon
enough u will get it:)
I'm sure this is all pretty much correct

Great song by STV


Eb|--|---------------|---------------|---------------|---------------|-
Bb|--|---------------|-------8-8---8-|---------------|-------8-8---8-|-
Gb|--|---------------|-------7-7---7-|---------------|-------7-7---7-|-
Db|--|---------------|-------6-6---6-|---------------|-------6-6---6-|-
Ab|--|-------5-5-6-6-|-7-7---7-7---7-|-------5-5-6-6-|-7-7---7-7---7-|-
Eb|--|--/7-7---------|-----0-----0---|--/7-7---------|-----0-----0---|-



             Drums enter

Eb|---------------|---------------|---------------|---------------|-----
Bb|---------------|-------8-8---8-|---------------|-------8-8---8-|-----
Gb|---------------|-------7-7---7-|---------------|-------7-7---7-|-----
Db|---------------|-------6-6---6-|---------------|-------6-6---6-|-----
Ab|-------5-5-6-6-|-7-7---7-7---7-|-------5-5-6-6-|-7-7---7-7---7-|-----
Eb|--/7-7---------|-----0-----0---|--/7-7---------|-----0-----0---|--/7-





Eb|-----------|---------------|-----|-----|---------------|-------------
Bb|-----------|-------8-8---8-|-----|-----|---------------|-------------
Gb|-----------|-------7-7---7-|--%--|--%--|---------------|-------------
Db|-----------|-------6-6---6-|-----|-----|---------------|-------------
Ab|---5-5-6-6-|-7-7---7-7---7-|-----|-----|-------5-5-6-6-|-7-----------
Eb|-7---------|-----0-----0---|-----|-----|--/7-7---------|---4-5-6-7-7-





Eb|---|----------------------------------12----------------------------
Bb|---|-------------------------------12----15-------15----------------
Gb|-8~|--14b16--p12----12-12----14b16----------14b16----14p12----12----
Db|-7~|-------------14-------14~------------------------------14----14p
Ab|---|----------------------------------------------------------------
Eb|---|----------------------------------------------------------------





Eb|-------------|----------12-------------12----12----------------------
Bb|-------------|-------12----12-15-15b17----12----15-------15----------
Gb|-------------|-14b16-------------------------------14b16----14p12----
Db|-12----12-14-|----------------------------------------------------14-
Ab|----14-------|-------------------------------------------------------
Eb|-------------|-------------------------------------------------------





Eb|-------------12-15b17-15~-12-------------12-------------------------
Bb|----------12-----------------15-------12----15-------12-------------
Gb|-12-14b16-----------------------14b16----------14b16----14-12----12-
Db|--------------------------------------------------------------14----
Ab|--------------------------------------------------------------------
Eb|--------------------------------------------------------------------





Eb|----------12-15b17-15~-12------------------------------------12----------
Bb|-------12-----------------15-------15--------------------12-----12-15b17-
Gb|-14b16-----------------------14b16----14p12----12-14b16------------------
Db|--------------------------------------------14---------------------------
Ab|-------------------------------------------------------------------------
Eb|-------------------------------------------------------------------------





Eb|-12-------------------------------------------------------------------
Bb|----15-12-------------------------------------------------------------
Gb|----------14-12----12-14-14b16--r12-14-12~----------------------------
Db|----------------14-------------------------14p12----12-14-12----------
Ab|-------------------------------------------------14----------14-13-12-
Eb|----------------------------------------------------------------------





Eb|-----------------------------14\-|-17b19~-(17)---(17)----15-17b19--15-
Bb|----------------12-----------14\-|------------------------------------
Gb|----------------12-----------14\-|------------------------------------
Db|-------12h14-------14-12-----13\-|------------------------------------
Ab|-------------------------14~-----|------------------------------------
Eb|-15-12-------12------------------|------------------------------------
             w/ thumb




Eb|-17-----15----------12------------------------------------------------
Bb|----17~----17p15\12----12-15b17-15r------15----------15b17---b2-------
Gb|-----------------------------------14b16----14r12----------14----r12b-
Db|--------------------------------------------------14------------------
Ab|----------------------------------------------------------------------
Eb|----------------------------------------------------------------------





Eb|----------12----12-15b17-15-12-------------12-------------------------
Bb|-------12----12----------------15-------12----15-------12-------------
Gb|-14b16----------------------------14b16----------14b16----14-12-------
Db|----------------------------------------------------------------14-14-
Ab|----------------------------------------------------------------------
Eb|----------------------------------------------------------------------





Eb|---------------------------------------------------------------------
Bb|-12----12-14-14b16-14r12----------12----12----12-14b15-14b16--r12-14-
Gb|-12----12-14-14b16-14r12----------12----12----12-14b15-14b16--r12-14-
Db|-12-14----14-14b16-14r---14----14-------------12---------------------
Ab|---------------------------------------------------------------------
Eb|----------------------------12-------12----12------------------------





Eb|----------------------------------------------12--------------------
Bb|----------------------------12-------------12----15-----------------
Gb|----12----------------------12-14-12-14b16----------14\-4-4\2-0-----
Db|-14----12-14p12-------14-14-------------------------------------2-0-
Ab|----------------14--------------------------------------------------
Eb|-------------------12-----------------------------------------------





Eb|---------------------------------|-----------------------0-----0-------
Bb|---------------------------------|-----------------0-------3b5---3-----
Gb|---------------------------------|-2b4-------r0h2b---0-------------2b4-
Db|---------------2---------0h2p0---|-------------------------------------
Ab|-2-1-0h1p0---------0-2-2-------2~|-------------------------------------
Eb|-----------3-0---0---------------|---------------------0---------------





Eb|---0-----0-0h2p0---0---------0-----------7-------7-7-------7-7----7-
Bb|-0---3b5---------3---3-----0---0---------7-10b12-7-7-10b12-7-7-10-7-
Gb|-----------------------2b4-------2/-9b11----------------------------
Db|--------------------------------------------------------------------
Ab|--------------------------------------------------------------------
Eb|--------------------------------------------------------------------





Eb|-7-------7-7-7-0/12-12-12-12-12-12-15b17-15~-12-------------12----------
Bb|-7-10b12-7-7-7-0/12-12-12-12-12-12--------------15-------12----15-------
Gb|---------------------------------------------------14b16----------14b16-
Db|------------------------------------------------------------------------
Ab|------------------------------------------------------------------------
Eb|------------------------------------------------------------------------





Eb|---------------------------------------------------------------------
Bb|-15----12----------14b15-12-14---------------------------------------
Gb|----14p12----12-14-14b15-12-14---------------14b16-14r12-14-12-------
Db|----------14-------------------14~----12-14--14b16-14r12-14-12-14p12-
Ab|---------------------------------------------------------------------
Eb|-----------------------------------12--------------------------------





Eb|--------------------------------------------------------14\-|-------
Bb|----------12----14-12-------------12----14-12-----------14\-|-------
Gb|----------12----14-12-------------12----14-12-----------14\-|-------
Db|----12-14----14-------14-12-14-14----14-------14-12-----13\-|-------
Ab|-14-------------------------------------------------14--14\-|-----5h
Eb|------------------------------------------------------------|-0-0---





Eb|--------------------------------------------------------------------
Bb|--------------------------------------------------------------------
Gb|--------------------------------------------------------------------
Db|-----------------------------------7b9-5-------7b9--7-9-7-5-7-------
Ab|-7---7---7---7---7---7-----5h7-----------7----------------------7-7-
Eb|---0---0---0---0---0---0-0-----0-0---------0-x----------------0-----





Eb|--------------------------------------------------------12----------
Bb|---------------------------------------7----------------12----12-12-
Gb|---------------------------------------7----------------12----12-12-
Db|----/9-9-7-5-7-5-----------9---7-9---------9---7-9------------------
Ab|-----------------7-5------------------------------------------------
Eb|-0--------------------/7-7---7-----7-7---7---7-----7-7/-12-12-------
                      with thumb




Eb|-------14-------14----------10--10--8-8-----8-8-8-8------------------
Bb|----12-14b16-12-14-12-------10--10--8-8-x-x-8-8-8-8------8---8-8-----
Gb|----12-14b16-12-14-12-14--\--x---x--x-x-x-x-x-x-x-x----x-7---7-7-x---
Db|-----------------------------9---9--7-7-x-x-7-7-7-7----x-6---6-6-x---
Ab|-----------------------------x---x--x-x-----x-x-x-x------7---7-7-----
Eb|-12--------------------------7---7--5-5-----5-5-5-5--0-----0------/7-





Eb|---10--10-10----------------------|----------------------------------
Bb|---10--10-10-------8--8-8---------|--------8-8---8-8-----------------
Gb|----x--------x-----7--7-7-x-x---8~|--------7-7---7-7-----------------
Db|----9---9--9-x-----6--6-6-x-x---7~|--------6-6---6-6-----------------
Ab|----x--------------7--7-7---------|--------7-7---7-7-----5-5-6-6-7-7-
Eb|-x--7---7--7---0-x-0----------0---|--0-0-x-----x----/7-7-------------





Eb|---------------------------------------------------10---10-10---10---
Bb|---8-8---8---------------------8-8---8-----8-8-----10---10-10-x-10-x-
Gb|---7-7---7---------------------7-7---7-----7-7------x-x--x--x-x--x-x-
Db|---6-6---6---------------------6-6---6-----6-6------9-x--9--9-x--9-x-
Ab|---7-7---7-------5-5-6-6-7-7---7-7---7-----7-7-----------------------
Eb|-0-----x---0/7-7-------------0-----0---0-0------/7-------7--7----7---





Eb|-10---10-10-10-10---------------------------------------------------
Bb|-10-x-10-10-10-10-----8-x-8-8-x-9-x-8-x-8-8-x---------------5~------
Gb|--x-x--x-----x--x-----7-x-7-7-x-7-x-7-x-7-7-x---------------5~------
Db|--9-x--9--9--9--9-----6-x-6-6-x-6-x-6---6-6-x-----7---5h7-------7-7-
Ab|-------x-----x--x-----7---7-7---7---7-x-7-7---0-0---0-----0---0-----
Eb|--7----7--7--7--7-0-0---0-----0-------------------------------------





Eb|-----------------------------10---10-10---8-8----------|----------12-
Bb|-------------8---8-8---------10---10-10-x-8-8-x-x------|-------12----
Gb|-------------7---7-7----------x----x--x-x-x-x-x-x---8~-|-14b16-------
Db|-5h7---------6---6-6----------9----9--9-x-7-7-x-x---7~-|-------------
Ab|-----0-0-----7---7-7----------x----x--x----------------|-------------
Eb|---------0-x---x-----0--/7-7--7-x--7--7-----------7----|-------------





Eb|-------------12-------------12----------------------------------------
Bb|-15-15b17-------15-------12----15-(15)----12~----------14-------------
Gb|-------------------14b16-----------14-b2--12~-12-12-12-14-12----------
Db|------------------------------------------12~----------------14-12----
Ab|----------------------------------------------------------------------
Eb|-------------------------------------------------------------------12-





Eb|----------------------------------------------------------------------
Bb|-------------12-------12----------------------------------------------
Gb|-------------12-------12----------------------14----------------14----
Db|----12-14-14-12-14-12----14-12-------13----------------13-------------
Ab|-------------------------------14-14----14-14----14-14----14-14----14-
Eb|-12-------------------------------------------------------------------





Eb|----------14----14---/12-12-12-0-12p0-0-12p0-0-12p0-0-0-12p0-0-0-17b21-
Bb|---------------------/12-12-12-0-12p0-0-12p0-0-12p0-0-0-12p0-0-0-------
Gb|----14-----------------------------------------------------------------
Db|-----------------------------------------------------------------------
Ab|-14----14----14--------------------------------------------------------
Eb|-----------------------------------------------------------------------





Eb--15--r-15b17-15-12h14p12----12-------------12----------12-------------
Bb--------------------------15----15-------12----15-------12-15p12----12-
Gb-----------------------------------14b16----------14b16----------14----
Db-----------------------------------------------------------------------
Ab-----------------------------------------------------------------------
Eb-----------------------------------------------------------------------





Eb|-------12-12-------12-12-------12-------12-12-------12-12-------12-------
Bb|-------12-12-------12-12-------12-------12-12-------12-12-------12-------
Gb|-14b16~------14b16-------14b16----14b16-------14b16-------14b16----14b16-
Db|-------------------------------------------------------------------------
Ab|-------------------------------------------------------------------------
Eb|-------------------------------------------------------------------------





Eb|-12-12-12----------12-----------------------------------------------
Bb|-12-12-15-12-------12-15-----------------15----------------------12-
Gb|-------------14b16-------12-12~--14b16--(14)--14b16--14-12-14b16----
Db|--------------------------------------------------------------------
Ab|--------------------------------------------------------------------
Eb|--------------------------------------------------------------------





Eb|-------------12----15b17-15r15-12h14p12--------17b21--r15b2--r14-12-
Bb|----------12----12----------------------15-12\----------------------
Gb|-12-14b16----------------------------------12-----------------------
Db|--------------------------------------------------------------------
Ab|--------------------------------------------------------------------
Eb|--------------------------------------------------------------------





Eb|----------------------------------------------------------------------
Bb|-15-12-------------------------------------12~------------------------
Gb|-------15-14-12----12-14-16b18-14-12-------12~------------------------
Db|----------------14-------------------14-14----14-12----------------14-
Ab|----------------------------------------------------14-13-12h13p12----
Eb|----------------------------------------------------------------------





Eb|----------------------------------------------------------|-15p12p0-
Bb|-------12~---------------------------------------14-14-14-|---------
Gb|-------12~---------------------------------------14-14-14-|---------
Db|-14----12~14-12----------------12h14~12----------13-13-13-|---------
Ab|----------------14-13p12-10-------------14-14-14-14-14-14-|---------
Eb|----12----------------------12----------------------------|---------





Eb-0-15p12p0-0-15p12p0-0-15p12p0-0-15p12p0-15p12p0-15p12p0-15p12p0-0-15-
Bb----------------------------------------------------------------------
Gb----------------------------------------------------------------------
Db----------------------------------------------------------------------
Ab----------------------------------------------------------------------
Eb----------------------------------------------------------------------





Eb|-15b17-15-12h14p12----12----------------------------------------------
Bb|-------------------15----15-15----15----------------------------------
Gb|----------------------------14b16----14r12----12-14b16---12-14b16--12-
Db|-------------------------------------------14-------------------------
Ab|----------------------------------------------------------------------
Eb|----------------------------------------------------------------------





Eb|---------------------------------------------------------------------
Bb|---------------------------------------------------------------------
Gb|-14--------12-14-14b16--r12-14-12\11-12-11\9-11-9h11p9\7-9-7h9p7\6-7-
Db|----14~-14-----------------------------------------------------------
Ab|---------------------------------------------------------------------
Eb|---------------------------------------------------------------------





Eb|-----------------------------0---------------------------------------
Bb|-------------------------------3-------------------------------------
Gb|-6h7p6\4-6-4\2h4p2-0-2-0-2b4-----2r0---------------------------------
Db|-------------------------------------2-0---------------2---2-2-----2-
Ab|-----------------------------------------2-1-0h1p0-------------------
Eb|---------------------------------------------------3-0---0-----0-0---





Eb|---------------|-----------------------------------------------------
Bb|---------------|-------8-8---8---------------------8-8---8-----------
Gb|------------8~-|-------7-7-x-7---------------------7-7-x-7-----------
Db|-----2------7~-|-------6-6-x-6---------------------6-6-x-6-----------
Ab|-------2-2-----|-7-7-7-7-7---7-------5-5-6-6-7-7---7-7---7-------5-5-
Eb|-0-0-----------|---------------0/7-7-------------0-----0---0/7-7-----





Eb|---------------------------------------10---10-10-----10-10---------
Bb|-----------8-8---8---------------------10---10-10-x-x-10-10-----8---
Gb|-----------7-7---7----------------------x----x--x-x-x--x--x-x-x-7-x-
Db|-----------6-6---6----------------------9----9--9-x-x--9--9-x-x-6-x-
Ab|-6-6-7-7---7-7---7-------5-5-6-7-----------------------x--x-x-x-7---
Eb|---------0-----0---0/7-7---------7-7-7--7-x--7--7------7--7-----0---





Eb|---------------------------8---8-8---8---8---8-8-8-8----------------
Bb|-8-8---8-x-8-x-8-8-8-8-----8---8-8---8---8---8-8-8-8-----8--8-8-----
Gb|-7-7-x-7-x-7-x-7-7-7-7-----x---x-x---x---x---x-x-x-x-----7--7-7-----
Db|-6-6-x-6-x-6-x-6-6-6-6-----7---7-7---7---7---7-7-7-7-----6--6-6--/9-
Ab|-7-7-x-7-x-7---7-7-7-7-----x---x-x---x---x---x-x-x-x-----7--7-7-----
Eb|------------------------/5-5-5-5-5-5-5-5-5-5-5-5-5-5-0-0------------





Eb|-------------------------------------||--------------12-------------
Bb|---------------------8--8-8-8-8------||-8tr-------12----15p12-------
Gb|---------------------7--7-7-7-7---8~-||-7tr-12h13-------------15p14p
Db|-9-7-7-5-7-5-5-------6--6-6-6-6---7~-||-6tr-------------------------
Ab|---------------7-7---7--7-7-7-7------||-7tr-------------------------
Eb|-------------------0------------0----||-----------------------------





Eb|--------------------------------------------||-----|-
Bb|-------12~----------------------------------||-----|-
Gb|-12----12~-14-12----------------------------||-----|-
Db|----14-----------14-12----------------------||-----|-
Ab|-----------------------14-13-12~13p12-11~---||-----|-
Eb|------------------------------------------0-||---0-|-

Once again ING PING PUDDING STING
            
Submit corrections


        Testify lessons Hard to play? Try these video lessons and learn fast Testify lessons
        
↑ Back to top | Tablatures and chords for acoustic guitar and electric guitar, ukulele, drums are parodies/interpretations of the original songs. You may use it for private study, scholarship, research or language learning purposes only