» » »

Staind - Tangled Up In You Tabs

Artists:  A B C D E F G H I J K L M N O P Q R S T U V W X Y Z # 

Tangled Up In You Tabs

(ver. 6) Click to play this song!
Staind
 Rating:
4.2/5 (30 votes)

 Tangled Up In You lessons Tabs too difficult? Try these video lessons and learn fast
 
                eb|---------------------------------------------------------------------|
Bb|---------------------------------------------------------------------|
Gb|---------------------------------------------------------------------|
Db|----2-4-----2-4-----7-9------7-9-------------------------------------|
Ab|--0-------0-------5-------5------------------------------------------|
Db|0-------0-------5-------5--------------------------------------------|(6x)

[Chorus]
eb|---------------------------------------------------------------------|
Bb|---------------------------------------------------------------------|
Gb|---------------------------------------------------------------------|
Db|----11-12-----11-12-----7-9-----7-9----------------------------------|
Ab|--9---------9---------5-------5--------------------------------------|
Db|9---------9---------5-------5----------------------------------------|(2x)

[Verse]
eb|---------------------------------------------------------------------|
Bb|---------------------------------------------------------------------|
Gb|---------------------------------------------------------------------|
Db|----2-4-----2-4-----7-9-----7-9--------------------------------------|
Ab|--0-------0-------5-------5------------------------------------------|
Db|0-------0-------5-------5--------------------------------------------|(4x)

[Chorus]
eb|---------------------------------------------------------------------|
Bb|---------------------------------------------------------------------|
Gb|---------------------------------------------------------------------|
Db|----11-12-----11-12-----7-9-----7-9----------------------------------|
Ab|--9---------9---------5-------5--------------------------------------|
Db|9---------9---------5-------5----------------------------------------|(2x)

[Bridge]
eb|---------------------------------------------------------------------|
Bb|---------------------------------------------------------------------|
Gb|---------------------------------------------------------------------|
Db|----11-12-----7-9-----2-4-----9-11-----11-12-----7-9-----2-4---------|
Ab|--9---------5-------0-------7--------9---------5-------0-------------|
Db|9---------5-------0-------7--------9---------5-------0---------------|

eb|---------------------------------------------------------------------|
Bb|---------------------------------------------------------------------|
Gb|---------------------------------------------------------------------|
Db|-----9-11-----9-11~--------------------------------------------------|
Ab|--7---------7--------------------------------------------------------|
Db|7---------7----------------------------------------------------------|

[Chorus]
eb|---------------------------------------------------------------------|
Bb|---------------------------------------------------------------------|
Gb|---------------------------------------------------------------------|
Db|----11-12-----11-12-----7-9-----7-9----------------------------------|
Ab|--9---------9---------5-------5--------------------------------------|
Db|9---------9---------5-------5----------------------------------------|(2x)

[Outro]
eb|---------------------------------------------------------------------|
Bb|-------------------------------—-------------------------------------|
Gb|---------------------------------------------------------------------|
Db|----2-4-----2-4-----7-9-----7-9-----2-4-----2-4-----7-9----7-9-------|
Ab|--0-------0-------5-------5-------0-------0-------5------5-----------|
Db|0-------0-------5-------5-------0-------0-------5------5-------------|(2x)

eb|---------------------------------------------------------------------|
Bb|----------3~~~~------------------------------------------------------|
Gb|--------2------------------------------------------------------------|
Db|----2-4--------------------------------------------------------------|
Ab|--0------------------------------------------------------------------|
Db|0--------------------------------------------------------------------|            
Submit corrections


        Tangled Up In You lessons Hard to play? Try these video lessons and learn fast Tangled Up In You lessons
        
↑ Back to top | Tablatures and chords for acoustic guitar and electric guitar, ukulele, drums are parodies/interpretations of the original songs. You may use it for private study, scholarship, research or language learning purposes only