» » »

Spider Murphy Gang - Skandal Im Sperrbezirk Tabs

Artists:  A B C D E F G H I J K L M N O P Q R S T U V W X Y Z # 

Skandal Im Sperrbezirk Tabs

(ver. 2) Click to play this song!
Spider Murphy Gang
 Rating:
4.2/5 (30 votes)

 Skandal Im Sperrbezirk lessons Tabs too difficult? Try these video lessons and learn fast
 
                [Intro]
E|-10--10--9---9---7---7---9---9---|-10--10--9---9---7---7---9---9---|-8---8---7---7---5---5---7---7---|
B|---------------------------------|---------------------------------|---------------------------------|
G|---------------------------------|---------------------------------|---------------------------------|
D|---------------------------------|---------------------------------|-0---------------0---------------|
A|-0---------------0---------------|---------------------------------|---------------------------------|
E|---------------------------------|-0---------------0---------------|---------------------------------|

E|-8---8---7---7---5---5---7---7---|---------------------------------|---------------------------------|
B|---------------------------------|-8---8---7---7---5---5---7---7---|-8---8---7---7---5---5---7---7---|
G|---------------------------------|---------------------------------|---------------------------------|
D|---------------------------------|-0---------------0---------------|---------------------------------|
A|-0---------------0---------------|---------------------------------|---------------------------------|
E|---------------------------------|---------------------------------|-0---------------0---------------|

E|-10--10--9---9---7---7---9---9---|-0-------------------------------|---------------------------------|
B|---------------------------------|---------------------------------|-------------------------3-------|
G|---------------------------------|-----1-------1-------1-------1---|-----1-------1-------1-------1---|
D|---------------------------------|---------2---------------2-------|---------2---------------2-------|
A|-0---------------0---------------|---------------------------------|---------------------------------|
E|---------------------------------|-0---------------0---------------|-0---------------0---------------|
                                                                                                In
                                                                                              
[Verse]   (2x for each Verse)
   A
E|-0-------0-----------------------|-------------0-----------0-------|
B|-----------------3-------2-------|-3-------2-----------------------|
G|-----2-------2-------2-------2---|-----2---------------2-------2---|
D|---------2---------------2-------|---------2---------------2-------|
A|-0---------------0---------------|-0---------------0---------------|
E|---------------------------------|---------------------------------|
   Mün-    chen    steht   ein       Hof-    bräu-haus,      doch 
   je-     der     ist     gut       in-     for- miert,     weil 
                                                                         
   G                                                                   D      
E|-0-------------------------------|-0-------------------------------|---------------------------------|
B|---------3-------3-------2-------|-----3-------3-----------3-------|-3-------2-----------------------|
G|-----0-------0-------0-------0---|-----0---------------0-------0---|-----------------2-------2-------|
D|---------0---------------0-------|---------0---------------0-------|-----0-------0-------0-------0---|
A|---------------------------------|---------------------------------|---------0---------------0-------|
E|-3---------------3---------------|-3---------------3---------------|-2---------------2---------------|
   Freu-   den-    häu-    ser       müs-sen     raus,       da-       mit     in      die-    ser
   Ros-    i       täg-    lich      in- se-     riert.      Und       wenn    dich    dei-    ne   
   
                                     E
E|---------------------------------|-0-------0-------0-------0-------|-3---2-------0-----------0-------|
B|-3-------2-----------------------|---------------------------------|---------------------------------|
G|-------------2-----------2-------|-----1-------1-------1-------1---|---------------------1-------1---|
D|-----0---------------0-------0---|---------2---------------2-------|---------2---------------2-------|
A|---------0---------------0-------|---------------------------------|---------------------------------|
E|-2---------------2---------------|-0---------------0---------------|-0---------------0---------------|
  schö-    nen Stadt       das       Las-    ter     kei-    ne        Chan-ce     hat!        Doch
  Frau     nicht liebt,    wie       gut,    dass    es      die       Ro- si      gibt!       Und


[Chorus]
   A                                 C                                 B7 
E|-0-------0-------0-------0-------|-0-------0---0-----------0---0---|-2-------2-------2-------2-------|
B|---------------------------------|---------------------------------|-----0-------0-------0-------0---|
G|-----2-------2-------2-------2---|-----2---------------2-------2---|---------2---------------2-------|
D|---------2---------------2-------|---------2---------------2-------|-1---------------1---------------|
A|-0---------------0---------------|-3---------------3---------------|---------------------------------|
E|---------------------------------|---------------------------------|---------------------------------|
   draus-  sen     vor     der       gro-    ßen Stadt       stehn die Nut-    ten     sich    die   

   E                                 A                                 
E|-4-------0---0-----------0-------|-0-----------------------0-------|-0-----------0-----------0-------|
B|-----0---------------0-------0---|---------------------------------|---------3-----------------------|
G|---------1---------------1-------|-----2-------2-------2-------2---|-----2---------------2-------2---|
D|-2---------------2---------------|---------2---------------2-------|---------2---------------2-------|
A|---------------------------------|-0---------------0---------------|-0---------------0---------------|
E|---------------------------------|---------------------------------|---------------------------------|
   Fü-     ße platt!       Skan-     dal     (Skandal)       im        Sperr-  be- zirk!       Skan-

   C                                                                   B7
E|-0-----------------------0-------|-0-----------0-----------0-------|-2-------------------------------|
B|---------------------------------|---------3-----------------------|-----0-------0-------0-------0---|
G|-----0-------0-------0-------0---|-----0---------------0-------0---|---------2---------------2-------|
D|---------2---------------2-------|---------2---------------2-------|-1---------------1---------------|
A|-3---------------3---------------|-3---------------3---------------|---------------------------------|
E|---------------------------------|---------------------------------|---------------------------------|
   dal    (Skandal)       im         Sperr-  be- zirk!       Skan-     da-       

                                       E
E|-/-7---------------------|---------------------------|
B|----------0---------0----|---------------------------|
G|-/-7-----------2---------|-2----1--------1-------1---|
D|-------------------------|-------------------2-------|
A|-------------------------|---------------------------|
E|-------------------------|-----------0---------------|
     al!    Skan-dal  um     Ro-  si!            
Submit corrections


        Skandal Im Sperrbezirk lessons Hard to play? Try these video lessons and learn fast Skandal Im Sperrbezirk lessons
        
↑ Back to top | Tablatures and chords for acoustic guitar and electric guitar, ukulele, drums are parodies/interpretations of the original songs. You may use it for private study, scholarship, research or language learning purposes only