Home » S » Soundgarden »

Soundgarden - Black Hole Sun Bass

Artists:  A B C D E F G H I J K L M N O P Q R S T U V W X Y Z # 

Black Hole Sun Bass

(ver. 1) Click to play this song!
Soundgarden
Verse

G|----------------------|
D|---------1-0----------|
A|----------------------|
E|-3-6-1-0------3-31-14-|x2

Chorus #1

G|----------------------|
D|----------------------|
A|-6-5-------1--6-3-1-6-|
E|-----3-31-1-----------|

Verse x2

Chorus #2

G|------------------------------------------------------------|
D|------------------------------------------------------------|
A|-6-5-------1--6-3-1-6--6-5-------1--6-3-1-6-3-1-6-3-1-6-3-1-|
E|-----3-31-1----------------3-31-1---------------------------|

Solo

G|-----------------|
D|-----------------|
A|--32-0-23--------|
E|----------3-2-1--|x6   On 6th time, add E|-0-33-|

Rest

Chorus #2 

Solo
            
Submit corrections

↑ Back to top | Tablatures and chords for acoustic guitar and electric guitar, ukulele, drums are parodies/interpretations of the original songs. You may use it for private study, scholarship, research or language learning purposes only