Home » S » Soundgarden »

Soundgarden - Spoonman Tabs

Artists:  A B C D E F G H I J K L M N O P Q R S T U V W X Y Z # 

Spoonman Tabs

(ver. 1) Click to play this song!
Soundgarden
so here ya go everyone, but he didnt have time to send me the
solo (which i still wnt if anyone has it)

3
------------------------------------------------------------
------------------------------------------------------------   
------------------------------------------------------------
--10h12-12-12-12-x-10-12\-7-5-7\-3-0-3h5-5-5-0-0-0-------
--10h12-12-12-12-x-10-12\-7-5-7\-3-0-3h5-5-5-0-0-0----------
--10h12-12-12-12-x-10-12\-7-5-7\-3-0-3h5-5-5-0-0-0----------

Dont forget to have that Droped D tuning 
which means tune the D string (lowest) down two frets
for those who dont know.

Riff B
-------------------------------
-------------------------------
-------------------------------
--10h12-12-12-12-x-10-12\-5----
--10h12-12-12-12-x-10-12\-5----
--10h12-12-12-12-x-10-12\-5----

Riff C

----------------------------------
----------------------------------
----------------------------------
----------------------5p3---------
--------------------------5p3-0---
--5p3-5p3-5p3-0-5-3---------------

Intro - riff A four times
Verse - B (sing), Riff A, Riff B (sing), riff A twice
Chorus - riff c four times, riff A twice
            
Submit corrections

↑ Back to top | Tablatures and chords for acoustic guitar and electric guitar, ukulele, drums are parodies/interpretations of the original songs. You may use it for private study, scholarship, research or language learning purposes only