Home » S » Soundgarden »

Soundgarden - Black Hole Sun Chords

Artists:  A B C D E F G H I J K L M N O P Q R S T U V W X Y Z # 

Black Hole Sun Chords

(ver. 2) Click to play this song!
Soundgarden
[Intro]
   Asus4             Aus4/C             G                  F#
eb|-----------------|-----------------|------------------|-----------------|
Bb|--------3--------|-------3---------|--------3---------|--------2--------|
Gb|-----2-----2-----|-----2-----------|------------------|-----------------|
Db|---2---------2---|---2-------------|-----5------5-----|-----4-----------|
Ab|-0-------------0-|-3---------------|---5----------5---|---4-------------|
Eb|-----------------|-----------------|-3--------------0-|-2-------------0-|
 
   Fsus4              E                 E 
eb|-----------------|-----------------|-----~~~~~~~~~~~~~|
Bb|-----------------|-------0---------|-----~~~~~~~~~~~~~|
Gb|-------3---------|-----------------|-----~~~~~~~~~~~~~|
Db|-----3-----3-----|-----2-----------|-----~~~~~~~~~~~~~|
Ab|---3---------3---|---2-------------|-----~~~~~~~~~~~~~|
Eb|-1-------------1-|-0---------------|-----~~~~~~~~~~~~~|

[Verse 1]
      A6         C                    G             F#m   
In my eyes, indisposed.         In disguises no one knows.
          Fsus4          E              Asus2  G     Bb
Hides the face, lies the snake  and the sun in my disgrace.
        A6           C                    G                   F#m
Boiling heat, Summer stench.   'neath the black the sky looks dead.
        Fsus4            E              Asus2     G       Bb
Call my name through the cream  and I'll hear you scream again.

[Chorus 1]
           F                    E           Asus2  G       C
Black hole sun,       won't you come     and wash away the rain?
           F                    E                  D               E
Black hole sun        won't you come?    Won't you come? Won't you come?

[Verse 2]
      A6             C                    G               F#m   
Stuttering, cold and damp.      Steal the warm wind tired friend.
          Fsus4           E                   Asus2   G        Bb
Times are gone for honest men   and sometimes far too long for snakes.
      A6               C              G               F#m   
In my shoes, a walking sleep.   In my youth I pray to keep.
       Fsus4      E                    Asus2      G      Bb
Heaven send Hell away.          No one sings like you anymore.

[Chorus 2]
           F                    E           Asus2  G       C
Black hole sun,       won't you come     and wash away the rain?
           F                    E                  D       C
Black hole sun        won't you come?    Won't you come? 
           F                    E           Asus2  G       C
Black hole sun,       won't you come     and wash away the rain?
           F                    E              
Black hole sun        won't you come?    

[Interlude]        
          D                 C               E
Won't you come? (Black Hole Sun, Black Hole Sun)
          D                 C               E
Won't you come? (Black Hole Sun, Black Hole Sun)
          D                 C               E
Won't you come? (Black Hole Sun, Black Hole Sun)
          D                 C               E
Won't you come? (Black Hole Sun, Black Hole Sun)

[Bridge]
(+ Guitar Solo): D                 G                          D                 G 
(10/8, 4/4) eb|----------------------|-----3---3---3--x| eb|---------------------|-----3---3---3--x|
            Bb|----------------------|-----3---3---3--x| Bb|---------------------|-----3---3---3--x|
(Repeat 3x) Gb|----------------------|-----3---3---3--x| Gb|---------------------|-----3---3---3--x|
            Db|----------------------|-----5---5---5--x| Db|---------------------|-----5---5---5--x|
            Ab|-5-4---2---5-0--------|-----5---5---5--x| Ab|-5-4---2---5-0-------|-----5---5---5--x|
            Eb|---------------4---3--|-----3---3---3--x| Eb|---------------4---3-|-----3---3---3--x|
(Counting):      1-2-3-4-5-6-7-8-9-10   1 + 2 + 3 + 4 +       1-2-3-4-5-6-7-8-9-10  1 + 2 + 3 + 4 +  
                                
                                       G A    A               A (2/4)
                                   eb|-3/5----3-------------|----------|
                                   Bb|-3/5----3-------------|----------|
      (Last part of phrase):       Gb|-4/6----4-------------|----------|
                                   Db|-5/7----5-------------|----------|  
                                   Ab|-5/7----5-------------|----------|
                                   Eb|-3/5----3-------------|----------|           
                                       1 +    2    3    4      1   2

[Instrumental]
        A6                     C                 G             F#m           N.C.
Hang my head.         Drown my fear.    'til you all just disappear...

[Chorus 3]:
           F                    E           Asus2  G       C
Black hole sun,       won't you come     and wash away the rain?
           F                    E                  D       C
Black hole sun        won't you come?    Won't you come? 
           F                    E           Asus2  G       C
Black hole sun,       won't you come     and wash away the rain?
           F                    E              
Black hole sun        won't you come?     

[Interlude]:          
          D                 C               E 
Won't you come? (Black Hole Sun, Black Hole Sun)
          D                 C               E
Won't you come? (Black Hole Sun, Black Hole Sun)
          D                 C               E
Won't you come? (Black Hole Sun, Black Hole Sun)
          D                 C               E
Won't you come? (Black Hole Sun, Black Hole Sun)
-(Add Background Solo)-
            D               C               E
(Black Hole Sun, Black Hole Sun)  Won't you come?
            D               C               E
(Black Hole Sun, Black Hole Sun)  Won't you come?
          D                 C               E              D             C              E
Won't you come?                                  Won't you come?

[Bridge]:      
(10/8, 4/4)     D                 G                            G A    A               A
            eb|----------------------|-----3-----3-3--x|   eb|-3/5----5-------------|---------------------|
            Bb|----------------------|-----3-----3-3--x|   Bb|-3/5----5-------------|-------R.I.P.--------|
(Play 1x):  Gb|----------------------|-----3-----3-3--x|   Gb|-4/6----6-------------|-------Chris---------|
            Db|----------------------|-----5-----5-5--x|   Db|-5/7----7-------------|-------Cornell-------|
            Ab|-5-4---2---5-0--------|-----5-----5-5--x|   Ab|-5/7----7-------------|--07/20/64-05/18/17--|
            Eb|---------------4---3--|-----3-----3-3--x|   Eb|-3/5----5-------------|---------------------|
(Counting):     1-2-3-4-5-6-7-8-9-10   1 + 2 + 3 + 4 +         1 +    2  


[Tab Part]

[Verse 1]                                                      
             1.      A6                C                   G                 F#m
                eb|------2----------|------0------------|-------3----------|--------2----------|
[Re-Intro]      Bb|----2------2---2-|----1--------------|-----3------3---3-|-----2-------------|
(1st 4 bars):   Gb|--2----------2---|--2----------------|--0-----------0---|--2----------------|
                Db|-----------------|-------------------|------------------|-------------------|
                Ab|-----------------|-------------------|------------------|-------------------|
                Eb|-----------------|-------------------|------------------|-------------------|
V1A:          In my eyes,          indisposed.       In disguises   no  one   knows             
            Boiling heat,       Summer stench. 'neath the black, the sky looks dead.       
[Re-Intro]: Hang my head,     drown my fear.      'til you all   just    disappear...    
V2A:          Stuttering,     cold and damp.     Still the warm  wind  tired  friend
              In my shoes,   a walking sleep.        Im my youth, I   pray to keep
             4.    Fsus4                E                  A        G         Bb
                eb|------1------------|------0-----------|-----2--------0---|-------1-----------|
                Bb|----1--------1---1-|----0-------0---0-|---2---2----2---2-|----3--------------|  
                Bb|--2------------2---|--1-----------1---|-2--------0-------|-3-----------------|  
                Db|-------------------|------------------|------------------|-------------------|
                Ab|-------------------|------------------|------------------|-------------------|
                Eb|-------------------|------------------|------------------|-------------------|
V1B:      Hides the face,      lies the snake     and the   sun  in  my    disgrace.  
            Call my name    through the cream     and I'll  hear you scream  again.
V2B:      Times are gone     for honest men   and sometimes far too  long for snakes.
             Heaven send         Hell   away.       No one sings like you     anymore.              

[Chorus 1]
           F                   E                 Asus2      G          C       
       eb|-------------------|-------------------|-------------------|--------0----------|
       Bb|-------1-----------|-------0-----------|------------0------|------1------1-----|
       Gb|------------2------|-----1------1------|-----2---------0---|-------------------|
       Db|-----3---------3---|---2-----------2---|---2---2---------0-|---2-----------2---|
       Ab|---3-------------3-|-----------------2-|-0-----------------|-3---------------3-|
       Eb|-1-----------------|-0-----------------|----------3--------|-------------------|
Black hole sun       won't you come            and wash    away the    rain?

           F                   E                   D   Dsus4 D         E
       eb|-------------------|-------------------|-2-----2h3p2----2--|-0-----------------|
       Bb|-------1-----------|-------0-----------|-3-----3---3----3--|-0-----------------|  
       Gb|------------2------|-----1------1------|-2-----2---2----2--|-1-----------------|
       Db|-----3---------3---|---2-----------2---|-0-----0---0----0--|-2-----------------|
       Ab|---3-------------3-|-----------------2-|-x-----x---x----x--|-2-----------------|
       Eb|-1-----------------|-0-----------------|-x-----x---x----x--|-0-----------------|
Black hole sun       won't you come?     Won't you come?     Won't you come?

[Chorus]
           F                   E                 Asus2      G          C       
       eb|-------------------|-------------------|-------------------|--------0----------|
       Bb|-------1-----------|-------0-----------|------------0------|------1------1-----|
       Gb|------------2------|-----1------1------|-----2---------0---|-------------------|
       Db|-----3---------3---|---2-----------2---|---2---2---------0-|---2-----------2---|
       Ab|---3-------------3-|-----------------2-|-0-----------------|-3---------------3-|
       Eb|-1-----------------|-0-----------------|----------3--------|-------------------|
Black hole sun       won't you come            and wash    away the    rain?

           F                   E                   D    Dsus4 D        C    Csus4 C   
       eb|-------------------|-------------------|-2--2---2h3p2---2--|-0--0---0h1p0---0--|
       Bb|-------1-----------|-------0-----------|-3--3---3---3---3--|-1--1---1---1---1--|
       Gb|------------2------|-----1------1------|-2--2---2---2---2--|-0--0---0---0---0--|
       Db|-----3---------3---|---2-----------2---|-0--0---0---0---0--|-2--2---2---2---2--|
       Ab|---3-------------3-|-----------------2-|-x--x---x---x---x--|-3--3---3---3---3--|
       Eb|-1-----------------|-0-----------------|-x--x---x---x---x--|-x--x---x---x---x--|
Black hole sun       won't you come?     Won't you come?      
 
           F                   E                 Asus2      G          C       
       eb|-------------------|-------------------|-------------------|--------0----------|
       Bb|-------1-----------|-------0-----------|------------0------|------1------------|
       Gb|------------2------|-----1------1------|-----2---------0---|------------0------|
       Db|-----3---------3---|---2-----------2---|---2---2---------0-|---2----------2----|
       Ab|---3-------------3-|-----------------2-|-0-----------------|-3--------------3--|
       Eb|-1-----------------|-0-----------------|----------3--------|-------------------|
Black hole sun       won't you come            and wash    away the    rain?

           F                   E                  D                 
       eb|-------------------|-------------------|
       Bb|-------1-----------|-------0-----------|
       Gb|------------2------|-----1------1------|
       Db|-----3---------3---|---2-----------2---|
       Ab|---3-------------3-|-----------------2-|
       Eb|-1-----------------|-0-----------------|
Black hole sun       won't you come?    Won't you come?            
Submit corrections

↑ Back to top | Tablatures and chords for acoustic guitar and electric guitar, ukulele, drums are parodies/interpretations of the original songs. You may use it for private study, scholarship, research or language learning purposes only