Home » S » Soundgarden »

Soundgarden - Outshined Tabs

Artists:  A B C D E F G H I J K L M N O P Q R S T U V W X Y Z # 

Outshined Tabs

(ver. 1) Click to play this song!
Soundgarden
Soundgarden-Outshined
-Drop D Tuning-
-Inlyghtened1-

-Intro-
E-----------------------------------------
B-----------------------------------------
G-------------------5---------------------
D-------------------5---------------------
A---0-0-0-3-5-3-0-3----6-5-3-5-3----------
D---0-0-0-3-5-3-0-3----6-5-3-5-3----------
                                    
-PreChorusRiff-
E---2-2-2-2-2-2------2-2-2-2-2-0--5-------
B---3-3-3-3-3-3------3-3-3-3-3-0-5--------
G---2-2-2-2-2-0------2-2-2-2-2-1----------
D---0-0-0-0-0-0------0-0-0-0-0-2----------
A------------------------------2----------
D-----------------------------------------

-Chorus-
E-----------------------------------------------------------
B-----------------------------------------------------------
G-----------------------------------------------------------
D-----------------------------------------------------------
A-7-5-0-3-5-0---3-5-0-3-0^3-6-6-6-5-3-0-3-3-3-3-3-3-3/5-----
D-7-5-0-3-5-0---3-5-0-3-0^3-6-6-6-5-3-0--5-5----------------

E----------------------------------------------------------
B----------------------------------------------------------
G--5---5--------5---5--------5---5--------5---5------------
D--5---5--------5---5--------5---5--------5---5------------
A--3---3--------3---3--------3---3--------3---3------------
D----------------------------------------------------------

-After Chorus-(p.m.)             *let ring
E------------------------------------------
B------------------------------------------
G------------------------------------------
D---7-7-7-9-7-7-5-4-5-4-5-4-5----5*--------
A---5-5-5-5-5-5-5-5-5-5-5-5-5----3*--------
D------------------------------------------
            
Submit corrections

↑ Back to top | Tablatures and chords for acoustic guitar and electric guitar, ukulele, drums are parodies/interpretations of the original songs. You may use it for private study, scholarship, research or language learning purposes only