» » »

Social Distortion - Far Behind Tabs

Artists:  A B C D E F G H I J K L M N O P Q R S T U V W X Y Z # 

Far Behind Tabs

(ver. 2) Click to play this song!
Social Distortion
 Rating:
4/5 (4 votes)

 Far Behind lessons Tabs too difficult? Try these video lessons and learn fast
 
                social distortion is awesome and so is this song
it only took me like half an hour to figure this out an 45 minutes to perfect it so most 
should have no problem with this solo

good luck

/-slide up

solo
e---------------------------------------|
B---------------------------------------|
G---------------------------------------|
D---------------------------------------|
A--------6-8-6-4-44-4-3-----------------|
E--4-6/8----------------6-4-44-6/8-8-6--|

e---------------------------------------|
B---------------------------------------|
G---------------------------------------|
D--------------------------------6-8-6--|
A------------------------6-6-6/8--------|
E--66-88-6-4-6-4-6-4-6/8----------------|

e---------------------------------------|
B---------------------------------------|
G---------------------------------------|
D--8/10-8-6---6-8-8/10-8-6---6-8-8/10---|
A-----------8--------------8------------|
E---------------------------------------|

e---------------------------------------|
B---------------------------------------|
G--8-10-8-10-8-10-10-10-1010------------|
D-----------------------------6666-8/10-|
A---------------------------------------|
E---------------------------------------|

e---------------------------------------|
B---------------------------------------|
G--8------------------------------------|
D----10-8-8-6---6-8-8/10-8-6---6--------|
A-------------8--------------8---8-6-4--|
E---------------------------------------|

e---------------------------------------|
B---------------------------------------|
G---------------------------------------|
D---------------------------------------|
A--3---3--------------------------------|
E----6---6-4-6-4-6-4--------------------|

then it goes into this
e----------------------------------------------|
B----------------------------------------------|
G--------------8-88-8-8-8----------------------|
D--6-66-6-6-6--8-88-8-8-8--11-1111-11--11--11--|
A--4-44-4-4-4--6-66-6-6-6--11-1111-11--11--11--|
E--4-44-4-4-4--------------9--9-9--9-9-9-------|
            
Submit corrections


        Far Behind lessons Hard to play? Try these video lessons and learn fast Far Behind lessons
        
↑ Back to top | Tablatures and chords for acoustic guitar and electric guitar, ukulele, drums are parodies/interpretations of the original songs. You may use it for private study, scholarship, research or language learning purposes only