» » »

Social Distortion - Far Behind Tabs

Artists:  A B C D E F G H I J K L M N O P Q R S T U V W X Y Z # 

Far Behind Tabs

(ver. 3) Click to play this song!
Social Distortion
 Rating:
4/5 (4 votes)

 Far Behind lessons Tabs too difficult? Try these video lessons and learn fast
 
                -------------------------------------------------------------------------------
Far Behind - Social Distortion
-------------------------------------------------------------------------------
Tuning: Standard (eBGDAE)

Guitar I  -  Distortion & capo 1st fret (tabs relative to capo), plays open chords 
in verse
Guitar II -  Distortion open strings, plays power/barre chords
Bass      -  Not too heavy bass line, plays same as rhythm guitar

| /  Slide up
| \  Slide down
| h  Hammer-on
| p  Pull-off
| ~  Vibrato/Let ring
| +  Harmonic
| x  Palm Mute
| ^  Bend


INTRO


Guitar I
    G  D  C    G  D  C
e|--3~-2~-0~---3~-2~-0~--|
B|--3~-3~-1~---3~-3~-1~--|
G|--0~-2~-0~---0~-2~-0~--|
D|--0~-0~-2~---0~-0~-2~--|
A|--2~----3~---2~----3~--|
E|--3~---------3~--------|


Guitar II
    G  D  C    G  D  C
e|-----------------------|
B|-----------------------|
G|-----8~-6~------8~-6~--|
D|--6~-8~-6~---6~-8~-6~--|
A|--6~-6~-4~---6~-6~-4~--|
E|--4~---------4~--------|


Bass
    G  D  C    G  D  C
G|-----------------------|
D|-----------------------|
A|-----6~-4~------6~-4~--|
E|--4~---------4~--------|

PRE-VERSE/CHORUS


Guitar I
    G        D        C        C
e|---------------------------------------|
B|---------------------------------------|
G|-----------77777777-55555555-55555555--|
D|--55555555-77777777-55555555-55555555--|
A|--55555555-55555555-33333333-33333333--|
E|--33333333-----------------------------|


Guitar II

e|---------------------------------------|
B|--9-9-8-8--9-9-9-9---9-9-8-8-9-9-9-9---|
G|---8---8----8-8-8-8---8---8---8-8-8-8--|
D|---------------------------------------|
A|---------------------------------------|
E|---------------------------------------|


Bass
    G        D        C        C
G|---------------------------------------|
D|---------------------------------------|
A|-----------66666666-44444444-44444444--|
E|--44444444-----------------------------|

VERSE


Guitar I
    G        D        C       C
e|---------------------------------------|
B|---------------------------------------|
G|-----------77777777-55555555-55555555--|
D|--55555555-77777777-55555555-55555555--|
A|--55555555-55555555-33333333-33333333--|
E|--33333333-----------------------------|
PM   XXXXXXX  XXXXXXX  XXXXXXX  XXXXXXX


Guitar II
    G        D        C       C
e|---------------------------------------|
B|---------------------------------------|
G|-----------88888888-66666666-66666666--|
D|--66666666-88888888-66666666-66666666--|
A|--66666666-66666666-44444444-44444444--|
E|--44444444-----------------------------|
PM   XXXXXXX  XXXXXXX  XXXXXXX  XXXXXXX


Bass
    G        D        C        C
G|---------------------------------------|
D|---------------------------------------|
A|-----------66666666-44444444-44444444--|
E|--44444444-----------------------------|

PRE-CHORUS


Guitar II
    G        D        C       C
e|---------------------------------------|
B|---------------------------------------|
G|-----------77777777-55555555-55555555--|
D|--55555555-77777777-55555555-55555555--|
A|--55555555-55555555-33333333-33333333--|
E|--33333333-----------------------------|
PM   XXXXXXX  XXXXXXX  XXXXXXX  XXXXXXX


Guitar II
    G        D        C       C
e|---------------------------------------|
B|---------------------------------------|
G|-----------88888888-66666666-66666666--|
D|--66666666-88888888-66666666-66666666--|
A|--66666666-66666666-44444444-44444444--|
E|--44444444-----------------------------|
PM   XXXXXXX


Bass
    G        D        C        C
G|---------------------------------------|
D|---------------------------------------|
A|-----------66666666-44444444-44444444--|
E|--44444444-----------------------------|

INTERLUDE


Guitar I

e|------------------------------------|
B|--8-8-8-8-8-8-8-8--7-7-7-7-7-7-7-7--|
G|--7-7-7-7-7-7-7-7--7-7-7-7-7-7-7-7--|
D|------------------------------------|
A|------------------------------------|
E|------------------------------------|

SOLO


Guitar I

e---------------------------------------|
B---------------------------------------|
G---------------------------------------|
D---------------------------------------|
A--------5-7-5-3-33-3-2-----------------|
E--3-5/7----------------5-3-33-5/7-7-5--|

e---------------------------------------|
B---------------------------------------|
G---------------------------------------|
D--------------------------------5-7-5--|
A------------------------5-5-5/7--------|
E--55-77-5-3-5-3-5-3-5/7----------------|

e-----------------------------------|
B-----------------------------------|
G-----------------------------------|
D--7/9-7-5---5-7-7/9-7-5---5-7-7/9--|
A----------7-------------7----------|
E-----------------------------------|

e-------------------------------|
B-------------------------------|
G--7-9-7-9-7-9-9-9-99-----------|
D---------------------5555-7/9--|
A-------------------------------|
E-------------------------------|

e-------------------------------------|
B-------------------------------------|
G--7----------------------------------|
D----9-7-7-5---5-7-7/9-7-5---5--------|
A------------7-------------7---7-5-3--|
E-------------------------------------|

e---------------------------------------|
B---------------------------------------|
G---------------------------------------|
D---------------------------------------|
A--2---2--------------------------------|
E----5---5-3-5-3-5-3--------------------|

This is an awesome solo but I advise you to make up your own in the same scale as this 
because who gets famous from copying eh?


Guitar II

    G        D        C        C
e|---------------------------------------|
B|---------------------------------------|
G|-----------88888888-66666666-66666666--|
D|--66666666-88888888-66666666-66666666--|
A|--66666666-66666666-44444444-44444444--|
E|--44444444-----------------------------|


Bass
    G        D        C        C
G|---------------------------------------|
D|---------------------------------------|
A|-----------66666666-44444444-44444444--|
E|--44444444-----------------------------|


===============================================================================


INTRO X2
PRE-VERSE X2
VERSE X2
PRE-CHORUS X2
CHORUS X4
PRE-VERSE X2
VERSE X2
PRE-CHORUS X2
CHORUS X4
INTERLUDE
SOLO
CHORUS X4
CHORUS X4 [but w/ rhythm guitar solo over the top]
INTRO [slow down on last 3 chords]


===============================================================================


With friends like you, who needs enemies?
You ain't right, you ain't never gonna be
Get out of the car, I'm afraid you've been declined.
You shake my hand, while you're p**sing on my leg
I'm cutting you loose, I don't need this misery
Your soul is toxic, you ain't no friend of mine. NO!!!

You talk real trash, when I'm not around
To build yourself up, you gotta' tear me down.
You'll have to excuse me, I got better things to do
You smile through your teeth, you talk out your neck
Every chance you get, you're going to stab my back
Your time's run out, I've got nothing left for you.

[Chorus:]
I'm leaving you far behind
I'm leaving you far behind
Stop wasting all, all my time
I'm leaving you far behind, Yeah!!!

So I'm pulling out the weeds, I'm taking stock
You can talk the talk, but can't walk the walk
Your narcissistic ways have gotten the best of you
So I'm leaving you to sink in all your glory
For you and me it's the end of the story
Get out of my way, I've got better things to do.

[Chorus x3]

With friends like you, who needs enemies?
You ain't right, you ain't never going to be
Your soul is toxic, you ain't no friend of mine


===============================================================================
            
Submit corrections


        Far Behind lessons Hard to play? Try these video lessons and learn fast Far Behind lessons
        
↑ Back to top | Tablatures and chords for acoustic guitar and electric guitar, ukulele, drums are parodies/interpretations of the original songs. You may use it for private study, scholarship, research or language learning purposes only