» » »

Social Distortion - Far Behind Tabs

Artists:  A B C D E F G H I J K L M N O P Q R S T U V W X Y Z # 

Far Behind Tabs

(ver. 1) Click to play this song!
Social Distortion
 Rating:
4/5 (4 votes)

 Far Behind lessons Tabs too difficult? Try these video lessons and learn fast
 
                
Another song by the baddest ass in the USA! In Mike we trust.

Tuning: 1/2 step down like all Social D music.
-Mike plays open chords with a capo on 2nd fret in this song.
-Guitar 2 plays power chords with no capo.

 and just saw him live today.  The solo is at least 95% correct
 to how Mike plays it.

VERSE:
     G                 D   
With friends like you, who needs enemies
C
You ain't right, you ain't never gonna be
       G                   D                   C    
You're outta the car, I'm afraid you've been de-clined
    G                          D
You shake my hand while you're p**sin on my leg
    C               
I'm cutting you loose, I don't need this misery
     G                  D                 C
Your soul is toxic, you ain't no friend of mine! No!

RIFF:
Mike Ness:           Guitar 2(No capo, but it doesn't matter here):  
G, D, C x2           e|----------------------------------------------|            
                     B|-10--109--910---1010------10-10-9-9-10--------|
                     G|----9----9----7------7~-----9--9-9-9--77-7777-| 
                     D|----------------------------------------------|
                     A|----------------------------------------------|
                     E|----------------------------------------------|

VERSE

CHORUS: 
           G    D     C
I'm leaving you far behind
           G    D     C
I'm leaving you far behind
            G       D  C 
Stop wasting all of my time
           G   D      C
I'm leaving you far behind


RIFF:
Mike Ness:           Guitar 2(slightly different from 1st time):  
G, D, C x2           e|-----------------------------------------------|            
                     B|-10-10-9-9-10-10-10-10-10---109---910---1010---|
                     G|---9--9-9-9--7--7--7--7---9-----9-----7------7-| 
                     D|-----------------------------------------------|
                     A|-----------------------------------------------|
                     E|-----------------------------------------------|

VERSE

CHORUS

PRE-SOLO (Mike, relative to capo):
e|-3x3x3x3x|
B|-33333333|
G|---------|                  
D|---------|
A|---------|
E|---------|x6, then scraaaaaaaaatttccchhhh!!!!

SOLO (Mike, relative to capo):
e|-----------------------------------------------------------|
B|-----------------------------------------------------------|
G|-----------------------------------------------------------|
D|-----------------------------------------------------------|
A|-----------5~--7-5-33~--3333\2-0---------------------------|
E|-3-3-3/5-7-----------------------3-338-8-5-57-5-33-35-3335-|
 
e|----------------------------------------------------------|
B|----------------------------------------------------------|
G|-------------------------------------------7--9-7-9-79-9~-|
D|-------------5--757/9-75--577/9\7-5-5757/9----------------|
A|------5--757-------------7--------------------------------|
E|-335/7----------------------------------------------------|

e|-------------------------------------------------------|
B|--------3----------------------------------------------|
G|-0002b3--3r2--22p00---024p20---------------------------|
D|-------------------2-2------2-0002p000-----------------|
A|---------------------------------------3\200-2-0-------|
E|-------------------------------------------------33~~~~|

CHORUS x2*
*On chorus second time around, this is played by Guitar 2 (No capo):
e|------------------------------------------5----------------------------------|
B|----5------------------5-5-------------5/7--7p5-5-5\333--3p2--2-2p0----------|
G|-4b--4b6r-4p222---244/6---4b6r-44p22-------------------------4------24-42--2-|
D|-----------------4------------------4-------------------------------------4--|
A|-----------------------------------------------------------------------------|
E|-----------------------------------------------------------------------------|

ENDING:
G, D, C x2

That's it!
            
Submit corrections


        Far Behind lessons Hard to play? Try these video lessons and learn fast Far Behind lessons
        
↑ Back to top | Tablatures and chords for acoustic guitar and electric guitar, ukulele, drums are parodies/interpretations of the original songs. You may use it for private study, scholarship, research or language learning purposes only