Home » S » Social Distortion »

Social Distortion - Cold Feelings Tabs

Artists:  A B C D E F G H I J K L M N O P Q R S T U V W X Y Z # 

Cold Feelings Tabs
Version #1
Social Distortion


Copy URL
Tuning: down ½ step

Intro:
E-------------------------------------------
B-------------------------------------------
G-------------------------------------------
D-999999999999-12---------------------------
A-999999999999-12---------------------------
E-777777777777-10---------------------------

Verse:   Chorus:  Solo:
E-------|-------|----------------------------------------------
B-------|-------|-------------12-------------12----------------
G-------|-------|-11-11-11-14----14-11----------14-11----------
D-9-5-7-|-5-7-9-|----------------------12-11----------12-------
A-9-5-7-|-5-7-9-|----------------------------------------------
E-7-3-5-|-3-5-5-|----------------------------------------------

Obiviously not strumming pattern, im not finished with the solo but im getting there, social distortion is one of my favorite bands , KICK ASS 
                                                ericmelvinsgirl
            
Submit corrections

↑ Back to top | Tablatures and chords for acoustic guitar and electric guitar, ukulele, drums are parodies/interpretations of the original songs. You may use it for private study, scholarship, research or language learning purposes only