Home » S » Shinedown »

Shinedown - Crow And The Butterfly Bass

Artists:  A B C D E F G H I J K L M N O P Q R S T U V W X Y Z # 

Crow And The Butterfly Bass

(ver. 1) Click to play this song!
Shinedown
"The Crow and the Butterfly" - Shinedown

Tuning : Drop D

Verse (not really certain on this)
G|-----------------------------|
D|-7~---10/-2------------------|
A|-----------------------------|
D|----------------3--5--0------|

Pre-Chorus
G|--------------------------------------------|
D|--------------------------------------------|
A|-3---3---1----1---------------------------3-|
D|------------------6-6-6-6-6-6--8-8-8--3-0---|

Chorus
G|---------------------------------------------|
D|---------------------------------------------|
A|-0~----------3~---------------------------3--|
D|-------------------------3~-----------3-0----|

G|-------------------------------------------------|
D|-------------------------------------------------|
A|-------------------------------------------------|
D|-5~----------0~--------------3~-----------5~-----|

Verse
Pre-Chorus
Chorus

Solo (repeat this but on the last one (where the vocals come in move the 3's up to the A String)
G|-----------------------------------------------|
D|-----------------------------------------------|
A|-6-6-6-6-6-6-6--6------------------------------|
D|------------------8~--8-7-5--3-3-3-3-3-3-3-3-3-|

Chorus
            
Submit corrections

↑ Back to top | Tablatures and chords for acoustic guitar and electric guitar, ukulele, drums are parodies/interpretations of the original songs. You may use it for private study, scholarship, research or language learning purposes only