Home » S » Shinedown »

Shinedown - Crow And The Butterfly Tabs

Artists:  A B C D E F G H I J K L M N O P Q R S T U V W X Y Z # 

Crow And The Butterfly Tabs

(ver. 2) Click to play this song!
Shinedown
Tuning: Drop D
but I tried. If there are any corrections that need to be made, let me 
know. Thanks and please rate/comment.

Update 08/06/08: I fixed the pre-chorus thanks to 365_days_gone. 

Update 08/13/08: I added the solo and fixed a few things thanks to clemm.

Update 02/08/09: I fixed a few mistakes and took out the "Play this x
times." I think this tab looks better than it did before. 

Note:

There are two ways, that I found, to play the intro/verses. It doesn't
matter which one you use, they are both the same. I prefer using the 
first one since it has more of a ring to it like in the song.


e|-----------------------------------------|
B|------2--------2---------1---------1-----|
G|----2---2----2---2-----2---2-----2---2---|
D|---------------------3---------3---------|
A|--0--------0-----------------------------|
D|-----------------------------------------|

e|-----------------------------------------|
B|-----------------------------------------|
G|------6--------6---------5---------5-----|
D|----7---7----7---7-----7---7-----7---7---|
A|--0--------0---------8---------8---------|
D|-----------------------------------------|

-----------------------------------------------------


Verse:

e|-----------------------------------------|
B|------2--------2---------1---------1-----|
G|----2---2----2---2-----2---2-----2---2---| 
D|---------------------3---------3---------|           
A|--0--------0-----------------------------|
D|-----------------------------------------|

e|-----------------------------------------|
B|------2--------2---------1---------1-----|
G|----2---2----2---2-----2---2-----2---2---| 
D|---------------------3---------3---------|           
A|--0--------0-----------------------------|
D|-----------------------------------------|

e|-----------------------------------------|
B|------2--------2---------1---------1-----|
G|----2---2----2---2-----2---2-----2---2---| 
D|---------------------3---------3---------|           
A|--0--------0-----------------------------|
D|-----------------------------------------|


Pre-Chorus:

e|-------------------------------------------|
B|-------------------------------------------|
G|------0---------0---------0---------0------| 
D|----2---2-----2---0-----2---2-----2---0----|           
A|--3---------3---------1---------1----------|
D|-------------------------------------------|

e|-------------------------------------------|
B|-------------------------------------------|
G|------0---------0---------0---------0------| 
D|----2---2-----2---0-----2---2-----2---0----|           
A|--3---------3---------1---------1----------|
D|-------------------------------------------|

e|-------------------------------------------|
B|-------------------------------------------|
G|------0---------0---------0---------0------| 
D|----2---2-----2---0-----2---2-----2---0----|           
A|--3---------3---------1---------1----------|
D|-------------------------------------------|


Verse:

e|-----------------------------------------|
B|------2--------2---------1---------1-----|
G|----2---2----2---2-----2---2-----2---2---| 
D|---------------------3---------3---------|           
A|--0--------0-----------------------------|
D|-----------------------------------------|

e|-----------------------------------------|
B|------2--------2---------1---------1-----|
G|----2---2----2---2-----2---2-----2---2---| 
D|---------------------3---------3---------|           
A|--0--------0-----------------------------|
D|-----------------------------------------|

e|-----------------------------------------|
B|------2--------2---------1---------1-----|
G|----2---2----2---2-----2---2-----2---2---| 
D|---------------------3---------3---------|           
A|--0--------0-----------------------------|
D|-----------------------------------------|


Pre-Chorus:

e|-------------------------------------------|
B|-------------------------------------------|
G|------0---------0---------0---------0------|
D|----2---2-----2---2-----2---2-----2---2----|
A|--3---------3---------1---------1----------|
D|-------------------------------------------|

e|------------------------------------------------------------|
B|------------------------------------------------------------|
G|--8--8-8-8-8--8--8-8-8-8--10--10-10-10-10--10--10-10-10-10--|
D|--6--6-6-6-6--6--6-6-6-6---8---8--8--8--8---8---8--8--8--8--|
A|--6--6-6-6-6--6--6-6-6-6---8---8--8--8--8---8---8--8--8--8--|
D|--6--6-6-6-6--6--6-6-6-6---8---8--8--8--8---8---8--8--8--8--|


Chorus:

e|-----------------------------------------------------|
B|------------1--1-1-1-1---1--1-1-1-1------------------|
G|------------2--2-2-2-2---0--0-0-0-0---5--5-5-5-5--5--|
D|--2--3--5---2--2-2-2-2---2--2-2-2-2---3--3-3-3-3--3--|
A|--2--3--5----------------3--3-3-3-3---3--3-3-3-3--3--|
D|--2--3--5-----------------------------3--3-3-3-3--3--|

e|---------------------------------------------------------|
B|----------1--1-1-1-1---1--1-1-1-1------------------------|
G|----------2--2-2-2-2---0--0-0-0-0---5--5-5-5-5--5-5-5-5--|
D|--3--5----2--2-2-2-2---2--2-2-2-2---3--3-3-3-3--3-3-3-3--|
A|--3--5-----------------3--3-3-3-3---3--3-3-3-3--3-3-3-3--|
D|--3--5------------------------------3--3-3-3-3--3-3-3-3--|

e|-------------------------------------------------|
B|--1--1-1-1-1---1--1-1-1-1------------------------|
G|--2--2-2-2-2---0--0-0-0-0---5--5-5-5-5--5-5-5-5--|
D|--2--2-2-2-2---2--2-2-2-2---3--3-3-3-3--3-3-3-3--|
A|---------------3--3-3-3-3---3--3-3-3-3--3-3-3-3--|
D|----------------------------3--3-3-3-3--3-3-3-3--|

e|-----------------------------------------------------|
B|-----------------------------------------------------|
G|--7--7-7-7-7---10--10-10-10-10--7--7-7-7-7--7-7-7-7--|
D|--7--7-7-7-7---10--10-10-10-10--5--5-5-5-5--5-5-5-5--|	
A|--5--5-5-5-5---8---8--8--8--8---5--5-5-5-5--5-5-5-5--|
D|--------------------------------5--5-5-5-5--5-5-5-5--|

e|-----------------------------------------------------|
B|-----------------------------------------------------|
G|--7--7-7-7-7---10--10-10-10-10--7--7-7-7-7--7-7-7-7--| 
D|--7--7-7-7-7---10--10-10-10-10--5--5-5-5-5--5-5-5-5--|	
A|--5--5-5-5-5---8---8--8--8--8---5--5-5-5-5--5-5-5-5--|
D|--------------------------------5--5-5-5-5--5-5-5-5--|


Verse:

e|-----------------------------------------|
B|------2--------2---------1---------1-----|
G|----2---2----2---2-----2---2-----2---2---| 
D|---------------------3---------3---------|           
A|--0--------0-----------------------------|
D|-----------------------------------------|

e|-----------------------------------------|
B|------2--------2---------1---------1-----|
G|----2---2----2---2-----2---2-----2---2---| 
D|---------------------3---------3---------|           
A|--0--------0-----------------------------|
D|-----------------------------------------|

e|-----------------------------------------|
B|------2--------2---------1---------1-----|
G|----2---2----2---2-----2---2-----2---2---| 
D|---------------------3---------3---------|           
A|--0--------0-----------------------------|
D|-----------------------------------------|


Pre-Chorus:

e|-------------------------------------------|
B|-------------------------------------------|
G|------0---------0---------0---------0------|
D|----2---2-----2---0-----2---2-----2---0----|        
A|--3---------3---------1---------1----------|
D|-------------------------------------------|

e|-------------------------------------------|
B|-------------------------------------------|
G|------0---------0---------0---------0------| 
D|----2---2-----2---0-----2---2-----2---0----|        
A|--3---------3---------1---------1----------|
D|-------------------------------------------|

e|-----------------------------------------------|
B|-----------------------------------------------|
G|--8--8-8-8-8--8--8-8-8-8--10--10-10-10-10--10--|
D|--6--6-6-6-6--6--6-6-6-6---8---8--8--8--8---8--|
A|--6--6-6-6-6--6--6-6-6-6---8---8--8--8--8---8--|
D|--6--6-6-6-6--6--6-6-6-6---8---8--8--8--8---8--|


Chorus:

e|-----------------------------------------------------|
B|------------1--1-1-1-1---1--1-1-1-1------------------|
G|------------2--2-2-2-2---0--0-0-0-0---5--5-5-5-5--5--|
D|--2--3--5---2--2-2-2-2---2--2-2-2-2---3--3-3-3-3--3--|
A|--2--3--5----------------3--3-3-3-3---3--3-3-3-3--3--|
D|--2--3--5-----------------------------3--3-3-3-3--3--|

e|---------------------------------------------------------|
B|----------1--1-1-1-1---1--1-1-1-1------------------------|
G|----------2--2-2-2-2---0--0-0-0-0---5--5-5-5-5--5-5-5-5--|
D|--3--5----2--2-2-2-2---2--2-2-2-2---3--3-3-3-3--3-3-3-3--|
A|--3--5-----------------3--3-3-3-3---3--3-3-3-3--3-3-3-3--|
D|--3--5------------------------------3--3-3-3-3--3-3-3-3--|

e|-------------------------------------------------|
B|--1--1-1-1-1---1--1-1-1-1------------------------|
G|--2--2-2-2-2---0--0-0-0-0---5--5-5-5-5--5-5-5-5--|
D|--2--2-2-2-2---2--2-2-2-2---3--3-3-3-3--3-3-3-3--|
A|---------------3--3-3-3-3---3--3-3-3-3--3-3-3-3--|
D|----------------------------3--3-3-3-3--3-3-3-3--|

e|-----------------------------------------------------|
B|-----------------------------------------------------|
G|--7--7-7-7-7---10--10-10-10-10--7--7-7-7-7--7-7-7-7--| 
D|--7--7-7-7-7---10--10-10-10-10--5--5-5-5-5--5-5-5-5--|	
A|--5--5-5-5-5---8---8--8--8--8---5--5-5-5-5--5-5-5-5--|
D|--------------------------------5--5-5-5-5--5-5-5-5--|

e|-----------------------------------------------------|
B|-----------------------------------------------------|
G|--7--7-7-7-7---10--10-10-10-10--7--7-7-7-7--7-7-7-7--| 
D|--7--7-7-7-7---10--10-10-10-10--5--5-5-5-5--5-5-5-5--|	
A|--5--5-5-5-5---8---8--8--8--8---5--5-5-5-5--5-5-5-5--|
D|--------------------------------5--5-5-5-5--5-5-5-5--|


Solo Riff:

e|--------------------------------------------------|
B|--------------------------------------------------|
G|--8-8-8-8-8-8--8--10------------------------------|
D|--8-8-8-8-8-8--8---8-----------3-3-3-3-3-3-3-3-3--|
A|--6-6-6-6-6-6--6---8-----------3-3-3-3-3-3-3-3-3--|
D|-------------------8----8-7-5--3-3-3-3-3-3-3-3-3--|

e|--------------------------------------------------|
B|--------------------------------------------------|
G|--8-8-8-8-8-8--8--10-----------5-5-5-5-5-5-5-5-5--|
D|--8-8-8-8-8-8--8---8-----------3-3-3-3-3-3-3-3-3--|
A|--6-6-6-6-6-6--6---8-----------3-3-3-3-3-3-3-3-3--|
D|-------------------8----8-7-5---------------------|


Lead Solo:

e|--------------------|-13------------------|------------------------|
B|-15b(1/2)(15)--13-15|-13b(1)-13-11--13----|13----------------------|
G|--------------------|---------------12b(1)|12b(1)-----(12)-10--10--|
D|--------------------|---(bend on 1st 12 until 2nd 12)--------12----|
A|--------------------|---------------------|------------------------|
D|--------------------|---------------------|------------------------|

e|-----13--15--15b(1)-|-18--18b(1)-18--16----------------------------|
B|---13--13--13-------|------------------18--18-----18~~~~~~---------|
G|-14-----------------|--------------------17-----17-----------------|
D|--------------------|----------------------------------------------|
A|--------------------|----------------------------------------------|
D|--------------------|----------------------------------------------|

                       (bend til end of 15's)
e|--------------------|-15b(1)1515151515-13-16-13-|-17b(1/2)-15------|
B|-13-----------------|---------------------------|------------18p17-|
G|-12b(1)--10-8-10----|---------------------------|------------------|
D|--------------------|---------------------------|------------------|
A|--------------------|---------------------------|------------------|
D|--------------------|---------------------------|------------------|

         * This goes pretty fast, takes a while to get it *
e|-R----|--------------------------------------1517------------------|
B|-E----|-----------------------8-11-10----1517-----20b(1)-----------|
G|-S----|----------------7-9/10--------10----------------------------|
D|-T----|--------7h8h9h10--------------------------------------------|
A|BEAT--|--7h8h10----------------------------------------------------|
D|-ONE--|------------------------------------------------------------|


Chorus:

e|-----------------------------------------------------|
B|------------1--1-1-1-1---1--1-1-1-1------------------|
G|------------2--2-2-2-2---0--0-0-0-0---5--5-5-5-5--5--|
D|--2--3--5---2--2-2-2-2---2--2-2-2-2---3--3-3-3-3--3--|
A|--2--3--5----------------3--3-3-3-3---3--3-3-3-3--3--|
D|--2--3--5-----------------------------3--3-3-3-3--3--|

e|---------------------------------------------------------|
B|----------1--1-1-1-1---1--1-1-1-1------------------------|
G|----------2--2-2-2-2---0--0-0-0-0---5--5-5-5-5--5-5-5-5--|
D|--3--5----2--2-2-2-2---2--2-2-2-2---3--3-3-3-3--3-3-3-3--|
A|--3--5-----------------3--3-3-3-3---3--3-3-3-3--3-3-3-3--|
D|--3--5------------------------------3--3-3-3-3--3-3-3-3--|

e|-------------------------------------------------|
B|--1--1-1-1-1---1--1-1-1-1------------------------|
G|--2--2-2-2-2---0--0-0-0-0---5--5-5-5-5--5-5-5-5--|
D|--2--2-2-2-2---2--2-2-2-2---3--3-3-3-3--3-3-3-3--|
A|---------------3--3-3-3-3---3--3-3-3-3--3-3-3-3--|
D|----------------------------3--3-3-3-3--3-3-3-3--|

e|------------------------------------------------------|
B|------------------------------------------------------|
G|--7--7-7-7-7---10--10-10-10-10---7--7-7-7-7--7-7-7-7--|
D|--7--7-7-7-7---10--10-10-10-10---5--5-5-5-5--5-5-5-5--|
A|--5--5-5-5-5----8---8--8--8--8---5--5-5-5-5--5-5-5-5--|
D|---------------------------------5--5-5-5-5--5-5-5-5--|

e|-------------------------------------------------|
B|--1--1-1-1-1---1--1-1-1-1------------------------|
G|--2--2-2-2-2---0--0-0-0-0---5--5-5-5-5--5-5-5-5--|
D|--2--2-2-2-2---2--2-2-2-2---3--3-3-3-3--3-3-3-3--|
A|---------------3--3-3-3-3---3--3-3-3-3--3-3-3-3--|
D|----------------------------3--3-3-3-3--3-3-3-3--|

e|---------------------------------------------------------|
B|----------1--1-1-1-1---1--1-1-1-1------------------------|
G|----------2--2-2-2-2---0--0-0-0-0---5--5-5-5-5--5-5-5-5--|
D|--3--5----2--2-2-2-2---2--2-2-2-2---3--3-3-3-3--3-3-3-3--|
A|--3--5-----------------3--3-3-3-3---3--3-3-3-3--3-3-3-3--|
D|--3--5------------------------------3--3-3-3-3--3-3-3-3--|

e|-------------------------------------------------|
B|--1--1-1-1-1---1--1-1-1-1------------------------|
G|--2--2-2-2-2---0--0-0-0-0---5--5-5-5-5--5-5-5-5--|
D|--2--2-2-2-2---2--2-2-2-2---3--3-3-3-3--3-3-3-3--|
A|---------------3--3-3-3-3---3--3-3-3-3--3-3-3-3--|
D|----------------------------3--3-3-3-3--3-3-3-3--|

e|------------------------------------------------------|
B|------------------------------------------------------|
G|--7--7-7-7-7---10--10-10-10-10---7--7-7-7-7--7-7-7-7--|
D|--7--7-7-7-7---10--10-10-10-10---5--5-5-5-5--5-5-5-5--|	
A|--5--5-5-5-5----8---8--8--8--8---5--5-5-5-5--5-5-5-5--|
D|---------------------------------5--5-5-5-5--5-5-5-5--|

e|------------------------------------------------------|
B|------------------------------------------------------|
G|--7--7-7-7-7---10--10-10-10-10---7--7-7-7-7--7-7-7-7--| 
D|--7--7-7-7-7---10--10-10-10-10---5--5-5-5-5--5-5-5-5--|	
A|--5--5-5-5-5----8---8--8--8--8---5--5-5-5-5--5-5-5-5--|
D|---------------------------------5--5-5-5-5--5-5-5-5--|


Solo 2/Ending: (I'm still trying to figure out the solo that goes here.)

e|-------------------------------------------------|
B|--1--1-1-1-1---1--1-1-1-1------------------------|
G|--2--2-2-2-2---0--0-0-0-0---5--5-5-5-5--5-5-5-5--|
D|--2--2-2-2-2---2--2-2-2-2---3--3-3-3-3--3-3-3-3--|	      
A|---------------3--3-3-3-3---3--3-3-3-3--3-3-3-3--|
D|----------------------------3--3-3-3-3--3-3-3-3--|

e|-------------------------------------------------|
B|--1--1-1-1-1---1--1-1-1-1------------------------|
G|--2--2-2-2-2---0--0-0-0-0---5--5-5-5-5--5-5-5-5--| 
D|--2--2-2-2-2---2--2-2-2-2---3--3-3-3-3--3-3-3-3--|	      
A|---------------3--3-3-3-3---3--3-3-3-3--3-3-3-3--|
D|----------------------------3--3-3-3-3--3-3-3-3--|

e|-------------------------------------------------|
B|--1--1-1-1-1---1--1-1-1-1------------------------|
G|--2--2-2-2-2---0--0-0-0-0---5--5-5-5-5--5-5-5-5--| 
D|--2--2-2-2-2---2--2-2-2-2---3--3-3-3-3--3-3-3-3--|	      
A|---------------3--3-3-3-3---3--3-3-3-3--3-3-3-3--|
D|----------------------------3--3-3-3-3--3-3-3-3--|

e|-------------------------------------------------|
B|--1--1-1-1-1---1--1-1-1-1------------------------|
G|--2--2-2-2-2---0--0-0-0-0---5--5-5-5-5--5-5-5-5--| 
D|--2--2-2-2-2---2--2-2-2-2---3--3-3-3-3--3-3-3-3--|	      
A|---------------3--3-3-3-3---3--3-3-3-3--3-3-3-3--|
D|----------------------------3--3-3-3-3--3-3-3-3--|

e|-----------------------------------------|
B|------2--------2---------1---------1-----|
G|----2---2----2---2-----2---2-----2---2---|
D|---------------------3---------3---------|           
A|--0--------0-----------------------------|
D|-----------------------------------------|

e|---------------------------------------------0--|
B|------2--------2---------1---------1---------2--|
G|----2---2----2---2-----2---2-----2---2-------2--| 
D|---------------------3---------3-------------x--|           
A|--0--------0---------------------------------0--|
D|------------------------------------------------|
            
Submit corrections

↑ Back to top | Tablatures and chords for acoustic guitar and electric guitar, ukulele, drums are parodies/interpretations of the original songs. You may use it for private study, scholarship, research or language learning purposes only