Home » S » Shinedown »

Shinedown - Simple Man Bass

Artists:  A B C D E F G H I J K L M N O P Q R S T U V W X Y Z # 

Simple Man Bass

(ver. 2) Click to play this song!
Shinedown
this is what i think the real tab is
supposed to be

intro and verse
G|---------------------|
D|---------------------|
A|-0-2-3---3-2----2-0--|
E|------------3-3------|

bridge
G|-------------------------------------|
D|-------0h2p0----0h2p0----------------|
A|-0-2-3------3---------3-0------------|
E|--------------3------------0-3-0-3/5-|

chorus
G|--------------------------------------|
D|---------------------------2--------2-|
A|-3-3-3-x-x-2-2-2--0-0-0-0-------------|
E|------------------------------0-3-0---|
            
Submit corrections

↑ Back to top | Tablatures and chords for acoustic guitar and electric guitar, ukulele, drums are parodies/interpretations of the original songs. You may use it for private study, scholarship, research or language learning purposes only