Home » S » Shinedown »

Shinedown - Simple Man Bass

Artists:  A B C D E F G H I J K L M N O P Q R S T U V W X Y Z # 

Simple Man Bass

(ver. 1) Click to play this song!
Shinedown
hey now there isnt a tab for brents version of this awesome song so i came up with this 
out of the blue and not blowing my own trumpet but it sounds amazing when you play along 
to the song.

Tuning: Standard

okay now it sounds good if you leave the bass out until the second verse because then 
its like a build up to the song

verse 2

|--------|
|--------|
|023~--0~|
|----3~--| x4

chorus

|------------------------------|
|------------------------------|
|3-3-3-33-3----------0-0-0-00-0|
|----------3-3-3-33-3----------| x4

pre-verse and verse

|--------------------------------------|
|----20--20--------------20--20--------|
|0023--3---30----030~0023--3---30----0~|
|-------3----0303-----------3----0303--| x4

chorus

|------------------------------|
|------------------------------|
|3-3-3-33-3----------0-0-0-00-0|
|----------3-3-3-33-3----------| x4

pre-verse and verse

|--------------------------------------|
|----20--20--------------20--20--------|
|0023--3---30----030~0023--3---30----0~|
|-------3----0303-----------3----0303--| x2

verse

|--------|
|--------|
|023~--0~|
|----3~--| x4

chorus

|------------------------------|
|------------------------------|
|3-3-3-33-3----------0-0-0-00-0|
|----------3-3-3-33-3----------| till till he says 'oh wont you doooooooooooooooooooo this...'

bass finishes then
there we go simple and good please rate and enjoy
            
Submit corrections

↑ Back to top | Tablatures and chords for acoustic guitar and electric guitar, ukulele, drums are parodies/interpretations of the original songs. You may use it for private study, scholarship, research or language learning purposes only