» » »

Shadows - Shindig Tabs

Artists:  A B C D E F G H I J K L M N O P Q R S T U V W X Y Z # 

Shindig Tabs

(ver. 1) Click to play this song!
Shadows
 Rating:
4/5 (4 votes)

 Shindig lessons Tabs too difficult? Try these video lessons and learn fast
 
                ------------------|-------------------------------------|---------------------
------------------|---------5---5-----------------5---5-|---------5---5-------
-5-6---5-6---5-6--|-----2-4-4h6-6-4-2---------2-4-4h6-6-|-----2-4-4h6-6-4-2---
-6-7---6-7---6-7--|-2-4---------------4-2-2-4-----------|-2-4---------------4-
-6-7---6-7---6-7--|-------------------------------------|---------------------
-4-5---4-5---4-5--|-------------------------------------|---------------------
 Intro/outro        <- twice                                                  

-------------------|-------------------|--------------------------------------
-------------2---2-|-------------2---2-|--------------------------------------
-2-4-5-4-2---1h2-2-|-2-4-5-4-2---1h2-2-|--------------------------------------
-----------4-------|-----------4-------|--------------------------------------
-------------------|-------------------|-2x-4x-4x-4x-2x-4x--2x-4x-4x-4x-2x-4x-
-------------------|-------------------|-0x-2x-2x-2x-0x-2x--0x-2x-2x-2x-0x-2x-
                                     ->                                       

-------------------------|-----------------------|-------------------------|--
-------------------------|-----------------------|-------------------------|--
-------------------------|-----------------------|-------------------------|--
-------------------------|-------4-2-------------|-------4-2-----------4-2-|--
-2x-4x-4x-4x-2x-4x--4x---|-----4-----4-2-----2-4-|-----4-----4---2-2-2-----|--
-0x-2x-2x-2x-0x-2x--2x---|-2-5-----------5-5-----|-2-5---------5-----------|--
                                                                              

---------------------|-----------------|-----------------|-------------|------
---------------------|-----------------|-----------------|-------------|------
-----2-2-2-----------|-2-2-2-----------|-2-2-2-----------|-4x-4x-4x-2x-|------
-2-4-------4-2-4-----|-------4-2-4-----|-------4-2-4-----|-6x-6x-6x-4x-|-6x---
-----------------0-0-|-------------0-0-|-------------2-2-|-------------|-7x---
---------------------|-----------------|-----------------|-------------|------
                                                                              

----------|-------------|-------------|-------------------------------------|-
----------|-------------|-------------|---------5---5-----------------5---5-|-
----------|-------------|-------------|-----2-4-4h6-6-4-2---------2-4-4h6-6-|-
-6x-6x-4x-|-6x-6x-4x-4x-|-2x-2x-2x-0x-|-2-4---------------4-2-2-4-----------|-
-7x-7x-5x-|-7x-7x-5x-5x-|-4x-4x-4x-2x-|-------------------------------------|-
----------|-------------|-------------|-------------------------------------|-
                                                                              

---------------------------------------|-------------------|-5----------------
---------5---5-------------------2---2-|-------------2---2-|-5h7-8-8-8-8------
-----2-4-4h6-6-4-2---2-4-5-4-2---1h2-2-|-2-4-5-4-2---1h2-2-|-----7-9-7-9------
-2-4---------------4-----------4-------|-----------4-------|------------------
---------------------------------------|-------------------|------------------
---------------------------------------|-------------------|------------------
                                                             Solo             

-10----9--5-5-5-----------10----9--5-5---5-7----9--10-12----10-9--10----12----
-10h12-10-5-5-5h7-8-8-8-8-10h12-10-5-5h7-7-7h9--10-12-12h14-12-10-10h12-14----
------------------7-9-7-9-----------------------------------------------------
                                                                              

-14-12-10-9--12-12-12-12-12-12----------12-12-12-12-12-12-------|-------------
-15-14-12-10-12-12-12-12-12-12----------12-12-12-12-12-12-------|-------------
-------------13-13-13-13-13-13----------13-13-13-13-13-13-------|-------------
-------------------------------0x-0x-0x-------------------0-0-0-|-------------
                                                                              

---------------------------------------|--------------------------------------
-----------5---5-----------------5---5-|---------5---5-------------------2----
------2-4--4h6-6-4-2---------2-4-4h6-6-|-----2-4-4h6-6-4-2---2-4-5-4-2---1h2--
-2-4-----------------4-2-2-4-----------|-2-4---------------4-----------4------
---------------------------------------|--------------------------------------
---------------------------------------|--------------------------------------
 <-  twice                                                                    

---|-------------------|------------------------------------------------------
-2-|-------------2---2-|------------------------------------------------------
-2-|-2-4-5-4-2---1h2-2-|-5-6---5-6---5-6--------------------------------------
---|-----------4-------|-6-7---6-7---6-7--------------------------------------
---|-------------------|-6-7---6-7---6-7--------------------------------------
---|-------------------|-4-5---4-5---4-5--------------------------------------
                     ->  Intro/outro
            
Submit corrections


        Shindig lessons Hard to play? Try these video lessons and learn fast Shindig lessons
        
↑ Back to top | Tablatures and chords for acoustic guitar and electric guitar, ukulele, drums are parodies/interpretations of the original songs. You may use it for private study, scholarship, research or language learning purposes only