» » »

Shadows - Kon Tiki Tabs

Artists:  A B C D E F G H I J K L M N O P Q R S T U V W X Y Z # 

Kon Tiki Tabs

(ver. 1) Click to play this song!
Shadows
 Rating:
3.5/5 (6 votes)

 Kon Tiki lessons Tabs too difficult? Try these video lessons and learn fast
 
                Use Strat bridge pick-up

----------4---4--4---------------4---4--4-------------------------------------
----------3---3--3---------------3---3--3-------------------------------------
----------4---4--4---------------4---4--4----------2---4----------------------
-----------------------------------------------2------------------------------
----0--0------------------0--0------------------------------------------------
                                                                              

--2--------------3--3--3---2-----------------------------2--------------------
------2------------------------3---------1-----1----2--4----------------------
--------------------------------------------4----------------2--1--0----------
                                                                              

-------------------------------|----------------------------------------------
----0--------------------2-----|--------------------2---------3--3--3--2------
-1-----2--------------1-----2--|---------2-2-4-4-------2------------------3---
----------2--2--1--0-----------|-----2-2--------------------------------------
-------------------------------|----------------------------------------------
-------------------------------|----------------------------------------------
                                                                              

-------------------2----------------0---------------------0-------------------
-1-----1-----2--4----------------1-----2---------------1-----2----------------
----4------------------2--1---0-----------2--2--1---0-------------------------
                                                                              

-5---7---9---5---------10---7---9---5---------0-------------------------------
-7---9---10--5---------10---9---10--5---------5-/-10--12----------------------
-7---7---9---6---------11---9---9---6-----------------------------------------
-7---------------------12-----------------------------------------------------
                                                                              



-9----\-5------------14--12--9------10--10--10--10----9--10--12--10--9--------
-9h10-\-5----7-/-10--15--14--10-----12--12--12--12----10-12--14--12--10-------
-------------7-/-11-----------------------------------------------------------
                                                                              

-7--9--10--9--7--9--7--5----4--5--6--7-----9---9------------------------------
-9--10-12--10-7--5--7--5----5--7--8--9-----10----10---------------------------
-------------------------------------------9--------9-------------------------
            
Submit corrections


        Kon Tiki lessons Hard to play? Try these video lessons and learn fast Kon Tiki lessons
        
↑ Back to top | Tablatures and chords for acoustic guitar and electric guitar, ukulele, drums are parodies/interpretations of the original songs. You may use it for private study, scholarship, research or language learning purposes only