Home » S » Seether »

Seether - Betray And Degrade Tabs

Artists:  A B C D E F G H I J K L M N O P Q R S T U V W X Y Z # 

Betray And Degrade Tabs

(ver. 1) Click to play this song!
Seether
 Rating:
4.3/5 (9 votes)
                [Intro]
D|----|--------------------------|--------------------------|
A|----|--------------------------|--------------------------|
F|----|--------------------------|--------------------------|
C|----|--------------------------|--------------------------|
G|--0-|-2--2--x-x-0--2--2--x-x-0-|-2--2--x-x-0--2--2--x-x-0-|
C|--0-|-2--2--x-x-0--2--2--x-x-0-|-2--2--x-x-0--2--2--x-x-0-|
    .   .  .      .  .  .      .   .  .      .  .  .      .

D|-------------------------------|-----------------------------|
A|-------------------------------|-----------------------------|
F|-------------------------------|-----------------------------|
C|-------------------------------|-----------------------------|
G|--2/5--5--x-x-0--2/5--5--x-x-0-|-2/5--5--x-x-0-------2-----0-|
C|--2/5--5--x-x-0--2/5--5--x-x-0-|-2/5--5--x-x-0--2/5-----3----|
    . .  .      .  . .  .      .   . .  .      .

D|---------------------------|--------------------------|
A|---------------------------|--------------------------|
F|---------------------------|--------------------------|
C|--2--2--x-x-0--2--2--x-x-0-|-2--2--x-x-0--2--2--x-x-0-|
G|--2--2--x-x-0--2--2--x-x-0-|-2--2--x-x-0--2--2--x-x-0-|
C|--2--2--x-x-0--2--2--x-x-0-|-2--2--x-x-0--2--2--x-x-0-|

D|---------------------------|---------------------------|
A|---------------------------|---------------------------|
F|---------------------------|---------------------------|
C|--5--5--x-x-0--5--5--x-x-0-|-5--5--x-x-0---------------|
G|--5--5--x-x-0--5--5--x-x-0-|-5--5--x-x-0-------2-----0-|
C|--5--5--x-x-0--5--5--x-x-0-|-5--5--x-x-0--2/5-----3----|

[Verse]
D|---------------------------|--------------------------|
A|---------------------------|--------------------------|
F|---------------------------|--------------------------|
C|---------------------------|--------------------------|
G|--2--2--x-x-0--2--2--x-x-0-|-2--2--x-x-0--2--2--x-x-0-|
C|--2--2--x-x-0--2--2--x-x-0-|-2--2--x-x-0--2--2--x-x-0-|
    .  .      .  .  .      .   .  .      .  .  .      .

D|-------------------------------|-----------------------------|
A|-------------------------------|-----------------------------|
F|-------------------------------|-----------------------------|
C|-------------------------------|-----------------------------|
G|--2/5--5--x-x-0--2/5--5--x-x-0-|-2/5--5--x-x-0-------2-----0-|
C|--2/5--5--x-x-0--2/5--5--x-x-0-|-2/5--5--x-x-0--2/5-----3----|
    . .  .      .  . .  .      .   . .  .      .

[Pre-Chorus]
D|--------------------------|---------------------|
A|--------------------------|---------------------|
F|--------------------------|---------------------|
C|--10-10-10-10-10-10-10-10-|-7-7-7-7-12-12-12-12-|
G|--8--8--8--8--8--8--8--8--|-5-5-5-5-10-10-10-10-|
C|--8--8--8--8--8--8--8--8--|-5-5-5-5-10-10-10-10-|

D|---------------------------|--------------------------|
A|---------------------------|--------------------------|
F|---------------------------|--------------------------|
C|---------------------------|--------------------------|
G|--2--2--x-x-0--2--2--x-x-0-|-2--2--x-x-0--2--2--x-x-0-|
C|--2--2--x-x-0--2--2--x-x-0-|-2--2--x-x-0--2--2--x-x-0-|
    .  .      .  .  .      .   .  .      .  .  .      .

D|--------------------------|---------------------|
A|--------------------------|---------------------|
F|--------------------------|---------------------|
C|--10-10-10-10-10-10-10-10-|-7-7-7-7-12-12-12-12-|
G|--8--8--8--8--8--8--8--8--|-5-5-5-5-10-10-10-10-|
C|--8--8--8--8--8--8--8--8--|-5-5-5-5-10-10-10-10-|

[Chorus]
D|------------------|-----------------|-----------------|-----------------|
A|------------------|-----------------|-----------------|-----------------|
F|--9-9-9-9-9-9-9-9-|-----------------|-5-5-5-5-5-5-5-5-|-----------------|
C|--9-9-9-9-9-9-9-9-|-5-5-5-5-5-5-5-5-|-5-5-5-5-5-5-5-5-|-7-7-7-7-7-7-7-7-|
G|--7-7-7-7-7-7-7-7-|-5-5-5-5-5-5-5-5-|-3-3-3-3-3-3-3-3-|-7-7-7-7-7-7-7-7-|
C|------------------|-5-5-5-5-5-5-5-5-|-----------------|-7-7-7-7-7-7-7-7-|

D|------------------|-----------------|-----------------|-----------------|
A|------------------|-----------------|-----------------|-----------------|
F|--9-9-9-9-9-9-9-9-|-----------------|-5-5-5-5-5-5-5-5-|-6-6-6-6-6-6-6-6-|
C|--9-9-9-9-9-9-9-9-|-5-5-5-5-5-5-5-5-|-5-5-5-5-5-5-5-5-|-6-6-6-6-6-6-6-6-|
G|--7-7-7-7-7-7-7-7-|-5-5-5-5-5-5-5-5-|-3-3-3-3-3-3-3-3-|-4-4-4-4-4-4-4-4-|
C|------------------|-5-5-5-5-5-5-5-5-|-----------------|-----------------|

[Pre-Verse]
D|---------------------------|----------------------------|
A|---------------------------|----------------------------|
F|--------5/7-7--------5/7-7-|-------5/7-7----------------|
C|--2--2--x-x-x--2--2--x-x-x-|-2--2--x-x-x----------------|
G|--2--2--3/5-5--2--2--3/5-5-|-2--2--3/5-5-------2-----0--|
C|--2--2---------2--2--------|-2--2---------2/5-----3-----|

[Pre-Bridge]
D|---------------------------|----------------------------|
A|---------------------------|----------------------------|
F|--------5/7-7--------5/7-7-|-------5/7-7----------------|
C|--2--2--x-x-x--2--2--x-x-x-|-2--2--x-x-x--------0-------|
G|--2--2--3/5-5--2--2--3/5-5-|-2--2--3/5-5--0-0-0-0-------|
C|--2--2---------2--2--------|-2--2---------0-0-0-0-------|
                                            . . . 

[Bridge/Outro]
D|---------------------------|-------------------------|
A|---------------------------|-------------------------|
F|---------------------------|-------------------7-7-7-|
C|--2--2--5h6p5-3--3--3/5-5--|-2--2--5h6p5-3--3--7-7-7-|
G|--2--2--5h6p5-3--3--3/5-5--|-2--2--5h6p5-3--3--5-5-5-|
C|--2--2--5h6p5-3--3--3/5-5--|-2--2--5h6p5-3--3--------|

[Mini Verse]
D|---------------------------|---------------------------|
A|---------------------------|---------------------------|
F|---------------------------|---------------------------|
C|---------------------------|---------------------------|
G|--2--2--x-x-0--2--2--x-x-0-|-2--2--x-x-0-------2-----0-|
C|--2--2--x-x-0--2--2--x-x-0-|-2--2--x-x-0--2/5-----3----|
    .  .      .  .  .      .   .  .      .            
Submit corrections

↑ Back to top | Tablatures and chords for acoustic guitar and electric guitar, ukulele, drums are parodies/interpretations of the original songs. You may use it for private study, scholarship, research or language learning purposes only