» » »

Seether - Fade Away Tabs

Artists:  A B C D E F G H I J K L M N O P Q R S T U V W X Y Z # 

Fade Away Tabs

(ver. 1) Click to play this song!
Seether
 Rating:
4/5 (4 votes)

 Fade Away lessons Tabs too difficult? Try these video lessons and learn fast
 
                Another great song. I tabbed it using standard tuning, but
you can play it with a dropped D as well.

Low to high: E a d g b e 

Here it is...

Key:
     /	-   slide up
     \  -   slide down
     h  -   hammer-on
     p  -   pull-off
     ~  -   vibrato
______________________________________________________________________________

Bass intro (can be played by guitar)                          
e------------------------------------------------------------------         }
b------------------------------------------------------------------         }
g------------------------------------------------------------------         }
d------------------------------------------------------------------         }
a--------2-----3--2-----2---------2-----3--2-----2-----------------         }
E--1--1-----1--------1------3--3-----3--------1--------------------         }
                                                                            }
                                                                            }    X2(and continue
e------------------------------------------------------------------         }       through verses)
b------------------------------------------------------------------         }
g------------------------------------------------------------------         }
d------------------------------------------------------------------         }
a------------------------------------------------------------------         }
E--1/5--5--5--5--5/7--7--7--7--7/8--8--8--8--8/10------------------         }

Guitar (overlaps the second bass riff)             
(second time around)                    
e---5------		                   e---10--------
b---7------                                b-------10----
g---7------                                g-------------  (when the bass plays the top D) 
d---5------                                d-------------
a---5------                                a-------------
E---5------                                E-------------


Verses (listen to the track for timing)
   F              G                     Am
e--------------|---------------------|-----------------------------        }
b-----1-----1--|---------------------|-----------------------------        }
g--------------|----4--4--4h5p4------|-----5--7p5-----5------------        }
d--3-----3-----|--5---------------5--|--7----------7----7\(3)------        }   X4
a--------------|---------------------|-----------------------------        }
E--------------|---------------------|-----------------------------        }

Chorus

  G          F              Am   C  
Today's the day we'll fade away, oh
  G          F              Am   C
Today's the day we'll fade away, oh
  G         F                  Am    C
Today's the day we'll find our way, grown
  G         F               Am
Today's the day we'll fade away


Bridge[X2] 
(listen to track for strumming pattern) 
Em  D                 Em
     And I'm coming back
    D                 Em
     And I'm taking back
    D
     Well, everything I can
           C                                         D  Am                  
     It's breaking me up, and tearing me up it's all I have


Solo thingy(again, listen to the track)
e-----------7--8--7-----0---8--7-----0-----------------------------
b--8~--10~-----------8------------8------8~------------------------
g------------------------------------------------------------------
d------------------------------------------------------------------
a------------------------------------------------------------------
E------------------------------------------------------------------

e--0--0--0--0--2--2--2--2--3--3--3--3--3/5-------------------------
b------------------------------------------------------------------
g------------------------------------------------------------------
d------------------------------------------------------------------
a------------------------------------------------------------------
E------------------------------------------------------------------

______________________________________________________________________________

That's it!!!

NJOY!!!
            
Submit corrections


        Fade Away lessons Hard to play? Try these video lessons and learn fast Fade Away lessons
        
↑ Back to top | Tablatures and chords for acoustic guitar and electric guitar, ukulele, drums are parodies/interpretations of the original songs. You may use it for private study, scholarship, research or language learning purposes only