» » »

Seether - Hang On Tabs

Artists:  A B C D E F G H I J K L M N O P Q R S T U V W X Y Z # 

Hang On Tabs

(ver. 1) Click to play this song!
Seether
 Rating:
4/5 (4 votes)

 Hang On lessons Tabs too difficult? Try these video lessons and learn fast
 
                This is my first tab so bear with me. Chances are this sin't completely correct,  but it hadn't been tabbed 

Tuning: Drop D
       (EBGDAd)

Intro 2x
E|-----------------------------------------------------------|
B|-----------------------------------------------------------|
G|5-5-5-5----------------------------------------------------|
D|5-5-5-5--8-8-8-8-8---1-1-1-1--3--1h3-1h3-------------------|
A|3-3-3-3--8-8-8-8-8---1-1-1-1--3--1h3-1h3-------------------|
d|---------8-8-8-8-8---1-1-1-1--3--1h3-1h3-------------------|

verse
E|-------------------------------------------------|
B|-------------------------------------------------|
G|----5-------3--------3---------5-----------------|
D|----5-------3--------3---------5-----------------|
A|--3-3----1--1-----1--1------3--3-----------------|
d|-0-----0---------0--------0----------------------|

Chorus
E|-----------------------------------------------------------|
B|-----------------------------------------------------------|
G|5-5-5-5----------------------------------------------------|
D|5-5-5-5--8-8-8-8-8---1-1-1-1--3--1h3-1h3-------------------|
A|3-3-3-3--8-8-8-8-8---1-1-1-1--3--1h3-1h3-------------------|
d|---------8-8-8-8-8---1-1-1-1--3--1h3-1h3-------------------|



Bridge (then verse and then chorus)
E|---------------------------------------------------------|
B|---------------------------------------------------------|
G|33333333---5---------------------------------------------|
D|33333333---5--1-1-1-1--3-3-3-----------------------------|
A|11111111---3--1-1-1-1--3-3-3-----------------------------|
d|--------------1-1-1-1--3-3-3-----------------------------|

E|-------------------------------------------------|
B|-------------------------------------------------|
G|------5-------3------3--------5------------------|
D|------5-------3------3--------5------------------|
A|---3--3----1--1----1-1-----3--3------------------|
d|-0-------0--------0------0-----------------------|
            
Submit corrections


        Hang On lessons Hard to play? Try these video lessons and learn fast Hang On lessons
        
↑ Back to top | Tablatures and chords for acoustic guitar and electric guitar, ukulele, drums are parodies/interpretations of the original songs. You may use it for private study, scholarship, research or language learning purposes only