» » »

Seether - Rise Above This Tabs

Artists:  A B C D E F G H I J K L M N O P Q R S T U V W X Y Z # 

Rise Above This Tabs

(ver. 1) Click to play this song!
Seether
 Rating:
4/5 (4 votes)

 Rise Above This lessons Tabs too difficult? Try these video lessons and learn fast
 
                Drop DB

Intro:

Pt.1
|--------------------------------------|
|--------------------------------------|
|-11-11-11-11-11-11-11-11-9-9-9-7-7/14-|
|-xx-xx-xx-xx-xx-xx-xx-xx-x-x-x-x-x/xx-|
|-09-09-09-09-09-09-09-09-7-7-7-5-5/12-|
|--------------------------------------| X2
Pt.2
|-----------------------------------------|
|-----------------------------------------|
|-12-12-12-12-12-12-12-12-11-11-11-9-9/14-|
|-xx-xx-xx-xx-xx-xx-xx-xx-xx-xx-xx-x-x/xx-|
|-10-10-10-10-10-10-10-10-09-09-09-7-7/12-|
|-----------------------------------------| X2


Verse:
|---------------------------------------------------|
|---------------------------------------------------|
|--6--6--6--6--6--6--6--6----7--7--7--7--7--7--7--7-|
|--x--x--x--x--x--x--x--x----x--x--x--x--x--x--x--x-|
|--4--4--4--4--4--4--4--4----5--5--5--5--5--5--5--5-|
|---------------------------------------------------|

|---------------------------------------------------|
|---------------------------------------------------|
|--6--6--6--6--6--6--6--6----9--9--9--9--9--9--9--9-|
|--x--x--x--x--x--x--x--x----x--x--x--x--x--x--x--x-|
|--4--4--4--4--4--4--4--4----7--7--7--7--7--7--7--7-|
|---------------------------------------------------|

|--------------------------------------------------|
|--------------------------------------------------|
|--7--7--7--7--7--7--7--7--7--7--7--7--7--7--7--7--|
|--5--5--5--5--5--5--5--5--5--5--5--5--5--5--5--5--|
|--5--5--5--5--5--5--5--5--5--5--5--5--5--5--5--5--|
|--5--5--5--5--5--5--5--5--5--5--5--5--5--5--5--5--|


Chorus:

Pt.1
|--------------------------------------|
|--------------------------------------|
|-11-11-11-11-11-11-11-11-9-9-9-7-7/14-|
|-xx-xx-xx-xx-xx-xx-xx-xx-x-x-x-x-x/xx-|
|-09-09-09-09-09-09-09-09-7-7-7-5-5/12-|
|--------------------------------------| X2
Pt.2
|-----------------------------------------|
|-----------------------------------------|
|-12-12-12-12-12-12-12-12-11-11-11-9-9/14-|
|-xx-xx-xx-xx-xx-xx-xx-xx-xx-xx-xx-x-x/xx-|
|-10-10-10-10-10-10-10-10-09-09-09-7-7/12-|
|-----------------------------------------| X2


Verse:

Verse:
|---------------------------------------------------|
|---------------------------------------------------|
|--6--6--6--6--6--6--6--6----7--7--7--7--7--7--7--7-|
|--x--x--x--x--x--x--x--x----x--x--x--x--x--x--x--x-|
|--4--4--4--4--4--4--4--4----5--5--5--5--5--5--5--5-|
|---------------------------------------------------|

|---------------------------------------------------|
|---------------------------------------------------|
|--6--6--6--6--6--6--6--6----9--9--9--9--9--9--9--9-|
|--x--x--x--x--x--x--x--x----x--x--x--x--x--x--x--x-|
|--4--4--4--4--4--4--4--4----7--7--7--7--7--7--7--7-|
|---------------------------------------------------|

|--------------------------------------------------|
|--------------------------------------------------|
|--7--7--7--7--7--7--7--7--7--7--7--7--7--7--7--7--|
|--5--5--5--5--5--5--5--5--5--5--5--5--5--5--5--5--|
|--5--5--5--5--5--5--5--5--5--5--5--5--5--5--5--5--|
|--5--5--5--5--5--5--5--5--5--5--5--5--5--5--5--5--|

Chorus:

Pt.1
|--------------------------------------|
|--------------------------------------|
|-11-11-11-11-11-11-11-11-9-9-9-7-7/14-|
|-xx-xx-xx-xx-xx-xx-xx-xx-x-x-x-x-x/xx-|
|-09-09-09-09-09-09-09-09-7-7-7-5-5/12-|
|--------------------------------------| X2
Pt.2
|-----------------------------------------|
|-----------------------------------------|
|-12-12-12-12-12-12-12-12-11-11-11-9-9/14-|
|-xx-xx-xx-xx-xx-xx-xx-xx-xx-xx-xx-x-x/xx-|
|-10-10-10-10-10-10-10-10-09-09-09-7-7/12-|
|-----------------------------------------| X2


SOLO:

|----------------------------------------------|
|----------------------------------------------|
|-/14-16-----------------14-16-----------------|
|--------14h16-16-14-12--------14h16-16-14-12--|
|----------------------------------------------|
|----------------------------------------------|
Pt.2 (2:05)
|-17b17-14h15p14--------17b17-14h15p14---------------|
|----------------15---------------------15-----15b-15|
|-------------------14---------------------14--------|
|----------------------------------------------------|
|----------------------------------------------------|
|----------------------------------------------------|

Bridge:

|----------------------------------------------------|
|----------------------------------------------------|
|----------------------------------------------------|
|--0---------5---------------------------------------|
|--0 x20-----5 x20-----------------------------------|
|--0---------5---------------------------------------|
im not sure how many times to play each chord, but this sounds pretty good

Final Chorus:

Pt.1
|--------------------------------------|
|--------------------------------------|
|-11-11-11-11-11-11-11-11-9-9-9-7-7/14-|
|-xx-xx-xx-xx-xx-xx-xx-xx-x-x-x-x-x/xx-|
|-09-09-09-09-09-09-09-09-7-7-7-5-5/12-|
|--------------------------------------| X2
Pt.2
|-----------------------------------------|
|-----------------------------------------|
|-12-12-12-12-12-12-12-12-11-11-11-9-9/14-|
|-xx-xx-xx-xx-xx-xx-xx-xx-xx-xx-xx-x-x/xx-|
|-10-10-10-10-10-10-10-10-09-09-09-7-7/12-|
|-----------------------------------------| X2

Do that twice.....

Outro:

|--------------------------------------|
|-11-11-11-11-11-11-11-11-9-9-9-7-7/14-|
|-xx-xx-xx-xx-xx-xx-xx-xx-x-x-x-x-x/xx-|
|-09-09-09-09-09-09-09-09-7-7-7-5-5/12-|
|--------------------------------------| X4
            
Submit corrections


        Rise Above This lessons Hard to play? Try these video lessons and learn fast Rise Above This lessons
        
↑ Back to top | Tablatures and chords for acoustic guitar and electric guitar, ukulele, drums are parodies/interpretations of the original songs. You may use it for private study, scholarship, research or language learning purposes only