Home » S » Secondhand Serenade »

Secondhand Serenade - Broken Tabs

Artists:  A B C D E F G H I J K L M N O P Q R S T U V W X Y Z # 

Broken Tabs

(ver. 2) Click to play this song!
Secondhand Serenade
 Rating:
3.7/5 (6 votes)
                

well... this is my first tab but, idk if the other ones were right... so::



Intro/Verse: ("In the moonlight...")

e|-------------------|
b|-------------------|
G|-4-----4-----4-----|    
D|-2-----4-----2-----|
A|-4-----2-----------|
E|-------------------|


Chorus: ("Is it broken?...")

e|---------------------|
b|---------------------|
G|-1-----4-----4-----4-|
D|-2-----4-----2-----4-|
A|-2-----2-----------2-|
E|---------------------|

Bridge: ("Time is all i ask for...")

e|---------------|
b|---------------|
G|-1-----4-----4-|    x2
D|-2-----2-----2-|
A|-2-----4-------|
E|---------------|

when you get to "stayyyyy" play:

e|---------------|
b|---------------|
G|-1-----4-----4~|
D|-2-----4-----2~|
A|-2-----2-------|
E|---------------|


Then just play the chords for the verses for "in the moonlight..."
and ALSO for the ending chords.

yea... should be easy.
            
Submit corrections

↑ Back to top | Tablatures and chords for acoustic guitar and electric guitar, ukulele, drums are parodies/interpretations of the original songs. You may use it for private study, scholarship, research or language learning purposes only