» » »

Secondhand Serenade - Vulnerable Tabs

Artists:  A B C D E F G H I J K L M N O P Q R S T U V W X Y Z # 

Vulnerable Tabs

(ver. 1) Click to play this song!
Secondhand Serenade
 Rating:
4/5 (4 votes)

 Vulnerable lessons Tabs too difficult? Try these video lessons and learn fast
 
                
     I am not sure this tab is 100%
accurate, but due to so many people
requesting me to tab the rest of
this I did my best to tab it. Sorry
if it is a little off, but for the 
most part, it sounds fine.
     I couldn't find any lyrics for
the song, so I listened and typed
them out at the bottom of the tab.

Tuning: eBGDAE

     INTRO
 
e|-----3---1-0----------3--|
B|---------------1------1--|
G|----0--0-----0------0----| X 2
D|-------------------------|
A|--3----------------------|
E|------------------3------|


     VERSE

e|-0-3-1-0--0-3-1-0--|
B|-1-1-1-1--1-1-1-1--|
G|-0-0-0-0--0-0-0-0--|
D|-2-2-2-2--2-2-2-2--|
A|-3-3-3-3--0-0-0-0--|
E|-------------------|

e|-0-0-1-0--0>-------|
B|-1-1-1-1--1>-------|
G|-0-0-0-0--0>-------|
D|-2-2-2-2--3>-------|
A|-3-3-3-3--3>-------|
E|----------1>-------|


     Pre-CHORUS

e|--0--0--0--0-0-----0--|
B|--1--1--1--1-1-----1--|
G|--0--0--0--0-0--0--0--|
D|--2--0--2--2-3--3--0--|
A|--3--3--0--0-3--3--2--|
E|--0--0--0--0-1--1--3--|


     CHORUS

e|-0--0--0--0-0--0--0--0-0--|
B|-1--1--1--1-1--1--1--1-1--|
G|-0--0--0--0-0--0--0--0-0--|
D|-2--0--3--2-0--2--0--3-x--|
A|-3--2--3--0-2--3--2--3-3--|
E|-------1----3--------1-1--|


     BRIDGE

e|-00----0----0-0------|
B|-11-1--1-1--1--1--1--|
G|-00--0-00-0-00---0-0-|
D|-222---0----2---2----|
A|-00----2----3--------|
E|-00----0----0--------|


     OUTRO

e|-3--0--0--0--|
B|-x--1--1--1--|
G|-0--0--0--0--|
D|-3--0--2--2--|
A|-3--2--0--3--|
E|-1--3--------|
            
Submit corrections


        Vulnerable lessons Hard to play? Try these video lessons and learn fast Vulnerable lessons
        
↑ Back to top | Tablatures and chords for acoustic guitar and electric guitar, ukulele, drums are parodies/interpretations of the original songs. You may use it for private study, scholarship, research or language learning purposes only