Home » S » Secondhand Serenade »

Secondhand Serenade - Fall For You Bass

Artists:  A B C D E F G H I J K L M N O P Q R S T U V W X Y Z # 

Fall For You Bass

(ver. 1) Click to play this song!
Secondhand Serenade
 Rating:
4.5/5 (20 votes)
                
Chorus: (1:26)

G|--------------------------------------|
D|--------------------------------------|
A|--3-3-3-3-3-3-3-3----0-0-0-0-0-0-0-0--|
E|--------------------------------------|


                                 x2
G|--------------------------------------|
D|--------------------------------------|
A|--------------------------------------|
E|--1-1-1-1-1-1-1-1----3-3-3-3-3-3-3-3--|


Bridge: (1:48)

G|---------------------------------|
D|---------------------------------|
A|--3-3----0-0---------------------|
E|----------------1-1-1-1-3-3-3-3--|

G|--------------------------------------|
D|--------------------------------------|
A|--3-3-3-3-0-0-0-0----1-1-1-1-3-3-3-3--|  x2
E|--------------------------------------|


         L.R.
G|-----------|
D|-----------|
A|--3-----0--|
E|-----------|


Chorus/Outro: (2:34)

G|--------------------------------------|
D|--------------------------------------|
A|--3-3-3-3-3-3-3-3----0-0-0-0-0-0-0-0--|
E|--------------------------------------|

G|--------------------------------------|
D|--------------------------------------|
A|--------------------------------------|
E|--1-1-1-1-1-1-1-1----3-3-3-3-3-3-3-3--|

G|--------------------------------------|
D|--------------------------------------|
A|--3-3-3-3-3-3-3-3----0-0-0-0-0-0-0-0--|
E|--------------------------------------|


                      L.R.
G|------------------------|
D|------------------------|
A|------------------------|
E|--1-1-1-1-1-1-1-1----3--|            
Submit corrections

↑ Back to top | Tablatures and chords for acoustic guitar and electric guitar, ukulele, drums are parodies/interpretations of the original songs. You may use it for private study, scholarship, research or language learning purposes only