» » »

Sean Kingston - Beautiful Girl Tabs

Artists:  A B C D E F G H I J K L M N O P Q R S T U V W X Y Z # 

Beautiful Girl Tabs

(ver. 3) Click to play this song!
Sean Kingston
 Rating:
4/5 (7 votes)

 Beautiful Girl lessons Tabs too difficult? Try these video lessons and learn fast
 
                Okay, I'm really p**sed off at all these p**sweak attempts at tabs, I havent seen one 
close tab yet, so I'll post a real on to save you the time I took. (ps, first tab lol, no 
to post any until now)

Standard Tuning. Capo- 2nd Fret. I will only put up the progression.
Chorus -
e-|---x---3---3---2---3------|---x---3---3---2---3------|
B-|---3---3---3---3---3------|---3---3---3---3---3------|
G-|---2---0---0---3---0------|---2---0---0---2---0------|
D-|---0---0---0---0---0------|---0---0---0---0---0------|
A-|---0---2---3-------3------|---0---2---3-------3------|
E-|---3---3---x-------x------|---3---3---x-------x------|

Verse -
e-|---x---3---3---2---3------|---x---3---3---2---3------|
B-|---3---3---3---3---3------|---3---3---3---3---3------|
G-|---2---0---0---2---0------|---2---0---0---2---0------|
D-|---0---0---0---0---0------|---0---0---0---0---0------|
A-|---0---2---3-------3------|---0---2---3-------3------|
E-|---3---3---x-------x------|---3---3---x-------x------|

Refrain - (pre-chorus)
e-|---x---3---3---3---3------|---x---3---3---3---3------|
B-|---3---3---3---3---3------|---3---3---3---3---3------|
G-|---2---0---0---2---0------|---2---0---0---2---0------|
D-|---0---0---0---2---0------|---0---0---0---2---0------|
A-|---0---3---2-------3------|---0---3---2-------3------|
E-|---3---x---3-------x------|---3---x---3-------x------|

Chorus -
e-|---x---3---3---2---3------|---x---3---3---2---3------|
B-|---3---3---3---3---3------|---3---3---3---3---3------|
G-|---2---0---0---3---0------|---2---0---0---2---0------|
D-|---0---0---0---0---0------|---0---0---0---0---0------|
A-|---0---2---3-------3------|---0---2---3-------3------|
E-|---3---3---x-------x------|---3---3---x-------x------|

Verse -
e-|---x---3---3---2---3------|---x---3---3---2---3------|
B-|---3---3---3---3---3------|---3---3---3---3---3------|
G-|---2---0---0---2---0------|---2---0---0---2---0------|
D-|---0---0---0---0---0------|---0---0---0---0---0------|
A-|---0---2---3-------3------|---0---2---3-------3------|
E-|---3---3---x-------x------|---3---3---x-------x------|

Refrain - (pre-chorus)
e-|---x---3---3---3---3------|---x---3---3---3---3------|
B-|---3---3---3---3---3------|---3---3---3---3---3------|
G-|---2---0---0---2---0------|---2---0---0---2---0------|
D-|---0---0---0---2---0------|---0---0---0---2---0------|
A-|---0---3---2-------3------|---0---3---2-------3------|
E-|---3---x---3-------x------|---3---x---3-------x------|

Chorus -
e-|---x---3---3---2---3------|---x---3---3---2---3------|
B-|---3---3---3---3---3------|---3---3---3---3---3------|
G-|---2---0---0---3---0------|---2---0---0---2---0------|
D-|---0---0---0---0---0------|---0---0---0---0---0------|
A-|---0---2---3-------3------|---0---2---3-------3------|
E-|---3---3---x-------x------|---3---3---x-------x------|

Chorus (again)
e-|---x---3---3---2---3------|---x---3---3---2---3------|
B-|---3---3---3---3---3------|---3---3---3---3---3------|
G-|---2---0---0---3---0------|---2---0---0---2---0------|
D-|---0---0---0---0---0------|---0---0---0---0---0------|
A-|---0---2---3-------3------|---0---2---3-------3------|
E-|---3---3---x-------x------|---3---3---x-------x------|

now if you find any errors feel free to cry and cut yourself. goodnight
also, peace,

Jack Frawley~
            
Submit corrections


        Beautiful Girl lessons Hard to play? Try these video lessons and learn fast Beautiful Girl lessons
        
↑ Back to top | Tablatures and chords for acoustic guitar and electric guitar, ukulele, drums are parodies/interpretations of the original songs. You may use it for private study, scholarship, research or language learning purposes only