Home » S » Sean Kingston »

Sean Kingston - Beautiful Girl Tabs

Artists:  A B C D E F G H I J K L M N O P Q R S T U V W X Y Z # 

Beautiful Girl Tabs

(ver. 2) Click to play this song!
Sean Kingston
Alright You Guyz, here it is, the guitar tabs of my verion of Beautiful Girls by Sean
I was thkning on selling the tabs but then I thought of the people that made their own
of a song and gave posted it for free so I don't wanna be mean so here you go. If you 
Bantol" and you can watch it!!!

and wateva lol

Here's the strumming pattern for the Verses and the 1st Chorus:

---------------------------------------------------------------------|
---------------------------------------------------------------------|
---------------------------------------------------------------------|
-----7-----7---------7-----7-----7-6-4-----4--------4-----4----------|
-----7--x--7--x------7--x--7--x--7-6-4--x--4--x-----4--x--4--x-------|
-0-4-5--x--5--x--0-4-5--x--5--x--5-4-2--x--2--x--0--2--x--2--x-------|

---------------------------------------------------------------------|
---------------------------------------------------------------------|
---------------------------------------------------------------------|
-4---12-----12-----12-16-14-----14--------7-----7---------7-----7----|
-4---12--x--12--x--12-16-14--x--14-x------7--x--7--x------7--x--7--x-|
-2-0-10--x--10--x--10-14-12--x--12-x--0-4-5--x--5--x--0-4-5--x--5--x-|

Now here is the strumming pattern for the Refrain:

------------------------------------------------------------------------------------------|
------------------------------------------------------------------------------------------|
------------------------------------------------------------------------------------------|
-----7-7-7-7---7-7-7-7---4-4-4-4---4-4-4-4---12-12-12-12-12-12--14-14-14-14-14-14--7------|
-----7-7-7-7---7-7-7-7---4-4-4-4---4-4-4-4---12-12-12-12-12-12--14-14-14-14-14-14--7------|
-0-4-5-5-5-5---5-5-5-5---2-2-2-2---2-2-2-2---10-10-10-10-10-10--12-12-12-12-12-12--5------|


NOW for the part that everybody asked for!!!!!!!!!!!

the solo part which I used for the 2nd and the 3rd Chorus:

(USE DISTORTION)

-7h9-7-5-5s12-12-12-12-12h14-7-9-----------5---5---7-7s9-|
-----------------------------------------7---7---7-------|
---------------------------------------------------------|
-----------------------------------7-6-4-----------------|
-----------------------------------7-6-4-----------------|
-----------------------------------5-4-2-----------------|

-9-7-5-5s9-7-7-5--5s9-7-7-5----5---5---7s9-7-7s9-5-------|
-----------------------------7---7---7-------------------|
---------------------------------------------------------|
---------------------------------------------------------|
---------------------------------------------------------|
---------------------------------------------------------|

-5s9-9s12-12s14-12--9-14-12-9-14-12-9-7-9--9h12-9-7-5----|
---------------------------------------------------------|
---------------------------------------------------------|
---------------------------------------------------------|
---------------------------------------------------------|
---------------------------------------------------------|

-5-9-7-5--5-9-7-5-9-7-7s9-7-7-5--------------------------|
---------------------------------------------------------|
---------------------------------------------------------|
---------------------------------------------------------|
---------------------------------------------------------|
---------------------------------------------------------|

For the 3rd Chorus, play this at the end of the Chorus but only in the 3rd and last Chorus:

-12-14-12-17-16------------------------------------------|
---------------------------------------------------------|
---------------------------------------------------------|
---------------------------------------------------------|
---------------------------------------------------------|
---------------------------------------------------------|

h=hammer on
s=slide


Agiht there you go. took me one hour to do it so ENJOY!!!!
            
Submit corrections

↑ Back to top | Tablatures and chords for acoustic guitar and electric guitar, ukulele, drums are parodies/interpretations of the original songs. You may use it for private study, scholarship, research or language learning purposes only