» » »

Sean Kingston - Take You There Tabs

Artists:  A B C D E F G H I J K L M N O P Q R S T U V W X Y Z # 

Take You There Tabs

(ver. 1) Click to play this song!
Sean Kingston
 Rating:
4.8/5 (24 votes)

 Take You There lessons Tabs too difficult? Try these video lessons and learn fast
 
                Sean Kingston – Take You There


video of me playing/singing it:

Tuning: E  A  D  G  B  E (Standard)(capo 1st fret)

x = mute

Chorus 1:
-0---2---0--------0---2---0---2-|
-0---3---0----0-0-0---3---0---3-|
-0---2---0----0-2-0---2---0---2-| (single strums)
-2---4---2----2-0-2---4---2---0-|
-2---2---3----3-2-2---2---3---0-|
-0----------------0-------------|

-0---3---0---2---0---3---0---2-|
-0---3---1---0---0---3---1---0-|
-0---0---0---2---0---0---0---2-| (slight palm mute)
-2---0---2---1---2---0---2---1-|
-2---2---3---2---2---2---3---2-|
-0---3-----------0---3---------|

Verse 1:
-0---2---0--------0---2---0---2-|
-0---3---0----0-0-0---3---0---3-|
-0---2---0----0-2-0---2---0---2-| (single strums)
-2---4---2----2-0-2---4---2---0-|
-2---2---3----3-2-2---2---3---0-|
-0----------------0-------------|

-0---3---0---2---0---3---0---2-|
-0---3---1---0---0---3---1---0-|
-0---0---0---2---0---0---0---2-| (slight palm mute)
-2---0---2---1---2---0---2---1-|
-2---2---3---2---2---2---3---2-|
-0---3-----------0---3---------|

Chorus 2:
-0---2---0--------0---2---0---2-|
-0---3---0----0-0-0---3---0---3-|
-0---2---0----0-2-0---2---0---2-|
-2---4---2----2-0-2---4---2---0-|
-2---2---3----3-2-2---2---3---0-|
-0----------------0-------------|

-0---3---0---2---0---3---0---2-|
-0---3---1---0---0---3---1---0-|
-0---0---0---2---0---0---0---2-|
-2---0---2---1---2---0---2---1-|
-2---2---3---2---2---2---3---2-|
-0---3-----------0---3---------|


Verse 2:
-0---2---0--------0---2---0---2-|
-0---3---0----0-0-0---3---0---3-|
-0---2---0----0-2-0---2---0---2-| (single strums)
-2---4---2----2-0-2---4---2---0-|
-2---2---3----3-2-2---2---3---0-|
-0----------------0-------------|

-0---3---0---2---0---3---0---2-|
-0---3---1---0---0---3---1---0-|
-0---0---0---2---0---0---0---2-| (slight palm mute)
-2---0---2---1---2---0---2---1-|
-2---2---3---2---2---2---3---2-|
-0---3-----------0---3---------|


Chorus 3/Breakdown:
------------------------------------|
----------------------------------x-|
-x---x---x-----x--x--x---x---x----7-|
-9---7---9-----9--7--9---7---9----0-| (slight palm mute)
-7---9---10----10-9--7---9---10---0-|
-x---7---8-----8--7--x---7---8----x-|

-0---3---0---2---0---3---0---2---0-|
-0---3---1---0---0---3---1---0---0-|
-0---0---0---2---0---0---0---2---0-|
-2---0---2---1---2---0---2---1---2-|
-2---2---3---2---2---2---3---2---2-|
-0---3-----------0---3-----------0-|
            
Submit corrections


        Take You There lessons Hard to play? Try these video lessons and learn fast Take You There lessons
        
↑ Back to top | Tablatures and chords for acoustic guitar and electric guitar, ukulele, drums are parodies/interpretations of the original songs. You may use it for private study, scholarship, research or language learning purposes only