Home » S » Sam The Sham »

Sam The Sham - Wooly Bully Bass

Artists:  A B C D E F G H I J K L M N O P Q R S T U V W X Y Z # 

Wooly Bully Bass

(ver. 3) Click to play this song!
Sam The Sham
 Intro
  Q=136
 4/4
  Gtr I
  Wx2          H    H      Q  Q  Q  Q    Q  Q  Q  Q
|------------|-----------|-------------|-------------|
|------------|-5----5----|-5--5--5--5--|-5--5--5--5--|
|------------|-----------|-------------|-------------|
|------------|-----------|-------------|-------------|


  E E E E E E E E   E E E E E E E E   E E E E E E E E   E E E E E E E E
|-----------------|-----------------|-----------------|-----------------|
|-5-5-5-3-----3-4-|-5-5-5-3-----3-4-|-5-5-5-3-----3-4-|-5-5-5-3-----3-4-|
|---------5-5-----|---------5-5-----|---------5-5-----|---------5-5-----|
|-----------------|-----------------|-----------------|-----------------|


  E E E E E E E E   E E E E E E E E   E E E E E E E E   E E E E E E E E
|-----------------|-----------------|-----------------|-----------------|
|-----5-5-----5-5-|-----5-5-----2-3-|-5-5-5-3-----3-4-|-5-5-5-3-----3-4-|
|-3-3-----3-3-----|-3-3-----3-3-----|---------5-5-----|---------5-5-----|
|-----------------|-----------------|-----------------|-----------------|


  E E E E E E E E   E E E E E E E E   E E E E E E E E   E E E E E E E E
|-----------------|-----------------|-----------------|-----------------||
|-----7-7-----7-7-|-----5-5-----3-4-|-5-5-5-3-----3-4-|-5-5-5-3-----3-4-||
|-5-5-----5-5-----|-3-3-----3-3-----|---------5-5-----|---------5-5-----||
|-----------------|-----------------|-----------------|-----------------||


   1st - 3rd Verses
    $
    E E E E E E E E   E E E E E E E E   E E E E E E E E   E E E E E E E E
||------------------|-----------------|-----------------|------------------|
||o-5-5-5-3-----3-4-|-5-5-5-3-----3-4-|-5-5-5-3-----3-4-|-5-5-5-3-----3-4--|
||o---------5-5-----|---------5-5-----|---------5-5-----|---------5-5------|
||------------------|-----------------|-----------------|------------------|


                                                        Chorus
  E E E E E E E E   E E E E E E E E   E E E E E E E E    E E E E E E E E
|-----------------|-----------------|-----------------||-----------------|
|-5-5-5-3-----3-4-|-5-5-5-3-----3-4-|-5-5-5-3-----3-4-||-----5-5-----5-5-|
|---------5-5-----|---------5-5-----|---------5-5-----||-3-3-----3-3-----|
|-----------------|-----------------|-----------------||-----------------|


  E E E E E E E E   E E E E E E E E   E E E E E E E E   E E E E E E E E
|-----------------|-----------------|-----------------|-----------------|
|-----5-5-----2-3-|-5-5-5-3-----3-4-|-5-5-5-3-----3-4-|-----7-7-----7-7-|
|-3-3-----3-3-----|---------5-5-----|---------5-5-----|-5-5-----5-5-----|
|-----------------|-----------------|-----------------|-----------------|


                                     1.
  E E E E E E E E   E E E E E E E E   E Q  Q  E E E
|-----------------|-----------------|----------------||
|-----5-5-----3-4-|-5-5-5-3-----3-4-|---------------o||
|-3-3-----3-3-----|---------5-5-----|-5-5--5--5-5-5-o||
|-----------------|-----------------|----------------||


                  Interlude
  2.,D.S.
                                                 To Coda
  E Q  Q  E E E    H    H      Q  Q  Q  Q    Q  Q  Q  Q
|---------------||-----------|-------------|-------------||
|---------------||-5----5----|-5--5--5--5--|-5--5--5--5--||
|-5-5--5--5-5-5-||-----------|-------------|-------------||
|---------------||-----------|-------------|-------------||


 Sax Solo
  E E E E E E E E   E E E E E E E E   E E E E E E E E   E E E E E E E E
|-----------------|-----------------|-----------------|-----------------|
|-5-5-5-3-----3-4-|-5-5-5-3-----3-4-|-5-5-5-3-----3-4-|-5-5-5-3-----3-4-|
|---------5-5-----|---------5-5-----|---------5-5-----|---------5-5-----|
|-----------------|-----------------|-----------------|-----------------|


  E E E E E E E E   E E E E E E E E   E E E E E E E E   E E E E E E E E
|-----------------|-----------------|-----------------|-----------------|
|-----5-5-----5-5-|-----5-5-----2-3-|-5-5-5-3-----3-4-|-5-5-5-3-----3-4-|
|-3-3-----3-3-----|-3-3-----3-3-----|---------5-5-----|---------5-5-----|
|-----------------|-----------------|-----------------|-----------------|


  E E E E E E E E   E E E E E E E E
|-----------------|-----------------|
|-----7-7-----7-7-|-----5-5-----3-4-|
|-5-5-----5-5-----|-3-3-----3-3-----|
|-----------------|-----------------|


                     D.S. al Coda &
  E E E E E E E E   E E E E Q  q     q  Q  H
|-----------------|---------------||------------*|
|-5-5-5-3-----3-4-|---------------||-5----------*|
|---------5-5-----|-5-5-5-5-5--5--||------------*|
|-----------------|---------------||------------*|            
Submit corrections

↑ Back to top | Tablatures and chords for acoustic guitar and electric guitar, ukulele, drums are parodies/interpretations of the original songs. You may use it for private study, scholarship, research or language learning purposes only