Home » S » Sam The Sham »

Sam The Sham - Wooly Bully Bass

Artists:  A B C D E F G H I J K L M N O P Q R S T U V W X Y Z # 

Wooly Bully Bass

(ver. 1) Click to play this song!
Sam The Sham
Intro:     .    .
G|-------|----------------------------------------------------------
D|-VOCAL-|-5----5----5-5-5-5-5-5-5--0-3-4-5555-3---3-4-5-5-3----3-4-
A|-START-|---------------------------------------55----------55-----
E|-------|----------------------------------------------------------

G|-----------------------------------------------------------------------
D|-5-5-3---3-4-5-5-3----3-4-------------------------5-5-3---3-4-5-5-3----
A|-------55----------55-----3-3-1---1-2-3-3-1---1-2-------55----------55-
E|--------------------------------33----------33-------------------------

G|----------------------------------------------
D|-3-4---77--7---55--0-3-4-5-5-3---3-4-00000034-
A|-----55--5---33--3-------------55-------------
E|----------------------------------------------

Verse: (Riff A ? Play this x7)
G|-------------
D|-5-5-3---3-4-
A|-------55----
E|-------------

Riff B:
G|---------------------
D|---------------0-3-4-
A|-3-3-3-3-3-3-3-------
E|---------------------

Repeat Riff A x2

Riff C:
G|------------------------------------------
D|---77--7---55--0-3-4-5-5-3---3-4-00000034-
A|-55--5---33--3-------------55-------------
E|------------------------------------------

Repeat Verse:

Sax Solo - Repeat Intro:

Repeat Verse:

Outro:
   .    .
G|-----------------------------
D|-5----5----5-5-5-5-5-5-5-5---
A|-----------------------------
E|---------------------------3-

            
Submit corrections

↑ Back to top | Tablatures and chords for acoustic guitar and electric guitar, ukulele, drums are parodies/interpretations of the original songs. You may use it for private study, scholarship, research or language learning purposes only