Home » S » Sam The Sham »

Sam The Sham - Wooly Bully Bass

Artists:  A B C D E F G H I J K L M N O P Q R S T U V W X Y Z # 

Wooly Bully Bass

(ver. 2) Click to play this song!
Sam The Sham
Intro:
G|------- ------- ------- -------|------- ------- ------- -------|
D|-------------------------------|-------------------------------|
A|-------------------------------|-------------------------------|
E|-------------------------------|-------------------------------|
  Uno,            dos,            one,    two,    tres,   cuatro!


G|------- ------- ------- -------|------- ------- ------- -------|
D|5---------------5--------------|5-------5-------5-------5------|
A|-------------------------------|-------------------------------|
E|-------------------------------|-------------------------------|



G|------- ------- ------- -------|
D|5-------5-------5-------3---4--|
A|--------------------5----------|
E|-------------------------------|
                              Yeah!


G|------- ------- ------- -------|------- ------- ------- -------|
D|5---5-------3-----------3---4--|5---5-------3-----------3---4--|
A|----------------5--------------|----------------5--------------|
E|-------------------------------|-------------------------------|
                  Wooly bully!                            Watch it now,


G|------- ------- ------- -------|------- ------- ------- -------|
D|5---5-------3-----------3---4--|5---5-------3------------------|
A|----------------5--------------|----------------5-------5---4--|
E|-------------------------------|-------------------------------|
  watch it!                               Here comes, here comes!


G|------- ------- ------- -------|------- ------- ------- -------|
D|--------5---------------5------|--------5---------------3---4--|
A|3---------------3--------------|3---------------3---5----------|
E|-------------------------------|-------------------------------|



G|------- ------- ------- -------|------- ------- ------- -------|
D|5---5-------3-----------3---4--|5---5-------3-----------3------|
A|----------------5--------------|----------------5--------------|
E|-------------------------------|-------------------------------|
                      Watch it now, it gets you!


G|------- ------- ------- -------|------- ------- ------- -------|
D|--------7---7-----------7---5--|--------5---------------3---4--|
A|5---------------5--------------|3---------------3---5----------|
E|-------------------------------|-------------------------------|



G|------- ------- ------- -------|------- ------- ------- -------|
D|5---5-------3-----------3---4--|5---5-------3-----------3---4--|
A|----------------5--------------|----------------5---5----------|
E|-------------------------------|-------------------------------|


Verse:
G|------- ------- ------- -------|------- ------- ------- -------|
D|5---5-------3-----------3---4--|5---5-------3-----------3---4--|
A|----------------5---5----------|----------------5---5----------|
E|-------------------------------|-------------------------------|
  Matty   told    Hatty                               a - bout a


G|------- ------- ------- -------|------- ------- ------- -------|
D|5---5-------3-----------3---4--|5---5-------3-----------3---4--|
A|----------------5---5----------|----------------5--------------|
E|-------------------------------|-------------------------------|
  thing   she saw,                                            Had


G|------- ------- ------- -------|------- ------- ------- -------|
D|5---5-------3-----------3---4--|5---5-------3-----------3---4--|
A|----------------5---5----------|----------------5--------------|
E|-------------------------------|-------------------------------|
  two     big horns                                       and a


G|------- ------- ------- -------|
D|5---5-------3-----------3---5--|
A|----------------5--------------|
E|-------------------------------|
  woo  -  ly  jaw,        Wooly


G|------- ------- ------- -------|------- ------- ------- -------|
D|-------------------------------|------------------------3---4--|
A|3-------3-------3---3-------3--|----3-------3---3---5----------|
E|-------------------------------|-------------------------------|
  bully,                                                  wooly


G|------- ------- ------- -------|------- ------- ------- -------|
D|5---5-------3-----------3---4--|5---5-------3-----------3------|
A|----------------5--------------|----------------5--------------|
E|-------------------------------|-------------------------------|
  bully,      yeah, it's right!                           Wooly


G|------- ------- ------- -------|------- ------- ------- -------|
D|--------3----------------------|--------5---5-----------3---4--|
A|5---------------5-------5---4--|3---------------3---5----------|
E|-------------------------------|-------------------------------|
  bully,                  wooly   bully,                  wooly


G|------- ------- ------- -------|------- ------- ------- -------|
D|5-------5---3-----------3---4--|5---5-------3-----------3---4--|
A|----------------5--------------|----------------5---5----------|
E|-------------------------------|-------------------------------|
  bully.

Verse:
G|------- ------- ------- -------|------- ------- ------- -------|
D|5---5-------3-----------3---4--|5---5-------3-----------3---4--|
A|----------------5---5----------|----------------5--------------|
E|-------------------------------|-------------------------------|
  Hatty   told    Matty:                                 "Let's don't


G|------- ------- ------- -------|------- ------- ------- -------|
D|5---5-------3-----------3---4--|5---5-------3-----------3---4--|
A|----------------5--------------|----------------5--------------|
E|-------------------------------|-------------------------------|
  take    no  chance,


G|------- ------- ------- -------|------- ------- ------- -------|
D|5---5-------3-----------3---4--|5---5-------3-----------3---4--|
A|----------------5--------------|----------------5--------------|
E|-------------------------------|-------------------------------|
  Let's   be  L - se- ven,                                come and
      not

G|------- ------- ------- -------|
D|5---5-------3-----------3---5--|
A|----------------5--------------|
E|-------------------------------|
  learn  this dance!"     Wooly


G|------- ------- ------- -------|------- ------- ------- -------|
D|-------------------------------|--------5---------------3---4--|
A|3-------3-------3---3-------3--|3---------------3---5----------|
E|-------------------------------|-------------------------------|
  bully,                                                  wooly


G|------- ------- ------- -------|------- ------- ------- -------|
D|5---5-------3-----------3---4--|5---5-------3-----------3------|
A|----------------5--------------|----------------5--------------|
E|-------------------------------|-------------------------------|
  bully,                                                  Wooly


G|------- ------- ------- -------|------- ------- ------- -------|
D|--------7---7-----------7---5--|--------5---------------3---4--|
A|5---------------5--------------|3---------------3---5----------|
E|-------------------------------|-------------------------------|
  bully,                  wooly   bully,                  wooly


G|------- ------- ------- -------|------- ------- ------- -------|
D|5-------5---3-----------3---4--|5---5-------3-----------3---4--|
A|----------------5--------------|----------------5--------------|
E|-------------------------------|-------------------------------|
  bully.  Watch it now, watch, watch, watch!

Interlude:
G|------- ------- ------- -------|------- ------- ------- -------|
D|5---------------5--------------|5-------5-------5-------5------|
A|-------------------------------|-------------------------------|
E|-------------------------------|-------------------------------|
                                  Hey!


G|------- ------- ------- -------|
D|5-------5-------5-------3---4--|
A|--------------------5----------|
E|-------------------------------|


Break (solo):
G|------- ------- ------- -------|------- ------- ------- -------|
D|5---5-------3-----------3---4--|5---5-------3-----------3---4--|
A|----------------5--------------|----------------5--------------|
E|-------------------------------|-------------------------------|
                  Yeah!                   Right,    right,    right!


G|------- ------- ------- -------|------- ------- ------- -------|
D|5---5-------3-----------3---4--|5---5-------3-----------5---5--|
A|----------------5--------------|----------------5--------------|
E|-------------------------------|-------------------------------|



G|------- ------- ------- -------|------- ------- ------- -------|
D|--------5---5-----------5---5--|--------5---5-----------3---4--|
A|3---------------3--------------|3---------------3---5----------|
E|-------------------------------|-------------------------------|



G|------- ------- ------- -------|------- ------- ------- -------|
D|5---5-------3-----------3---4--|5---5-------3-----------3------|
A|----------------5--------------|----------------5--------------|
E|-------------------------------|-------------------------------|



G|------- ------- ------- -------|------- ------- ------- -------|
D|--------7---7-----------7-\-5--|--------5---------------3---4--|
A|5---------------5--------------|3---------------3---5----------|
E|-------------------------------|-------------------------------|



G|------- ------- ------- -------|------- ------- ------- -------|
D|5---5-------3-----------3---4--|5---5-------3-----------3---4--|
A|----------------5--------------|----------------5--------------|
E|-------------------------------|-------------------------------|


Verse:
G|------- ------- ------- -------|------- ------- ------- -------|
D|5---5-------3-----------3---4--|5-------5---3-----------3---4--|
A|----------------5---5----------|----------------5--------------|
E|-------------------------------|-------------------------------|
  Matty   told    Hatty:                                 "There's a


G|------- ------- ------- -------|------- ------- ------- -------|
D|5---5-------3-----------3---4--|5---5-------3-----------3---4--|
A|----------------5--------------|----------------5--------------|
E|-------------------------------|-------------------------------|
  thing   to  do,


G|------- ------- ------- -------|------- ------- ------- -------|
D|5---5-------3-----------3---4--|5---5-------3-----------3---4--|
A|----------------5--------------|----------------5---5----------|
E|-------------------------------|-------------------------------|
  Get you someone really,                                 pull the


G|------- ------- ------- -------|
D|5---5-------3-----------3---5--|
A|----------------5--------------|
E|-------------------------------|
  wool    with you!"      Wooly


G|------- ------- ------- -------|------- ------- ------- -------|
D|-------------------------------|------------------------3---4--|
A|3-------3---3-------3-------3--|----3-------3-------5----------|
E|-------------------------------|-------------------------------|
  bully,                                                  wooly


G|------- ------- ------- -------|------- ------- ------- -------|
D|5---5-------3-----------3---4--|5---5-------3-----------7---7--|
A|----------------5--------------|----------------5--------------|
E|-------------------------------|-------------------------------|
  bully,                                                  Wooly


G|------- ------- ------- -------|------- ------- ------- -------|
D|--------7---7-----------7---5--|--------5---------------3---4--|
A|5---------------5--------------|3---------------3---5----------|
E|-------------------------------|-------------------------------|
  bully,                  wooly   bully,                  wooly


G|------- ------- ------- -------|------- ------- ------- -------|
D|5---5---5---3-----------3---4--|5---5-------3-----------3---4--|
A|----------------5--------------|----------------5--------------|
E|-------------------------------|-------------------------------|
  bully.  Watch it now, watch it, here comes!

Outro:
G|------- ------- ------- -------|------- ------- ------- -------|
D|5---------------5--------------|5-------5-------5-------5------|
A|-------------------------------|-------------------------------|
E|-------------------------------|-------------------------------|
              You got it, you got it!


G|------- ------- ------- -------|------- ------- ------- -------|
D|5-------5-------5-------5------|5------------------------------|
A|-------------------------------|-------------------------------|
E|-------------------------------|-------------------------------|            
Submit corrections

↑ Back to top | Tablatures and chords for acoustic guitar and electric guitar, ukulele, drums are parodies/interpretations of the original songs. You may use it for private study, scholarship, research or language learning purposes only