Home » S » Sam The Sham »

Sam The Sham - Wooly Bully Tabs

Artists:  A B C D E F G H I J K L M N O P Q R S T U V W X Y Z # 

Wooly Bully Tabs

(ver. 2) Click to play this song!
Sam The Sham

 Intro
  Q=136
                        G7
 4/4
  Gtr I (Clean El. Gtr.)
  W          W          Q.   E Q.   E   E E E E E E E E
|----------|----------|-3------3------|-3---3---3---3---|
|----------|----------|-6------6------|-6---6---6---6---|
|----------|----------|-4------4------|-4---4---4---4---|
|----------|----------|-3------3------|-3---3---3---3---|
|----------|----------|-5------5------|-5---5---5---5---|
|----------|----------|-3------3------|-3---3---3---3---|


  E E E E E E E E   E E e e E E e E   E E e e E E e E   E E e e E E e E
|-3---3---3---3---|-----------------|-----------------|-----------------|
|-6---6---6---6---|-----------------|-----------------|-----------------|
|-4---4---4---4---|-----4-4-----4---|-----4-4-----4---|-----4-4-----4---|
|-3---3---3---3---|-----3-3-----3---|-----3-3-----3---|-----3-3-----3---|
|-5---5---5---5---|---------5-5-----|---------5-5-----|---------5-5-----|
|-3---3---3---3---|-3-3-------------|-3-3-------------|-3-3-------------|


                    C7                                  G7
  E E e E E E e E   E E e e E E e E   E E e e E E e E   E E e e E E e E
|-----------------|-----------------|-----------------|-----------------|
|-----------------|-----------------|-----------------|-----------------|
|-----4-------4---|-----3-3-----3---|-----3-3-----3---|-----4-4-----4---|
|-----3-------3---|-----2-2-----2---|-----2-2-----2-0-|-----3-3-----3---|
|---------5-5---5-|-3-3-----3-3-----|-3-3-----3-3-----|---------5-5-----|
|-3-3-------------|-----------------|-----------------|-3-3-------------|


                    D7                C7                G7
  E E e e E E e E   E E e e E E e E   E E e e E E e e   E E e e E E e E
|-----------------|-----------------|-----------------|-----------------|
|-----------------|-----------------|-----------------|-----------------|
|-----4-4-----4---|-----5-------5---|-----3-------3---|-----4-4-----4---|
|-----3-3-----3---|-----4-4-----4---|-----2-2-----2-0-|-----3-3-----3---|
|---------5-5---5-|-5-5-----------5-|-3-3-----3-3-----|---------5-5-----|
|-3-3-------------|---------5-5-----|-----------------|-3-3-------------|


                     1st - 3rd Verses
                  $
                      G7
  E E e E E E e E      E E e E E E e E   E E e E E E e E   E E e E E E e E
|-----------------||-------------------|-----------------|-----------------|
|-----------------||o------------------|-----------------|-----------------|
|-----4-------4---||-------4-------4---|-----4-------4---|-----4-------4---|
|-----3-------3---||-------3-------3---|-----3-------3---|-----3-------3---|
|---5-------5-----||o----------5-5-----|---------5-5-----|---------5-5-----|
|-----------------||---3-3-------------|-3-3-------------|-3-3-------------|
|
| Gtr II (Sax arr. for Gtr.)
| W                    e E Q   H         W                 W
|-----------------||-------------------|-----------------|-----------------|
|-----------------||o------------------|-----------------|-----------------|
|-----------------||-------------------|-----------------|-----------------|
|-----------------||-------------------|-----------------|-----------------|
|-----------------||o-10---------------|-----------------|-----------------|
|-----------------||-------------------|-----------------|-----------------|


  E E e E E E e E   E E e E E E e E   E E e E E E e E   E E e E E E e E
|-----------------|-----------------|-----------------|-----------------||
|-----------------|-----------------|-----------------|-----------------||
|-----4-------4---|-----4-------4---|-----4-------4---|-----4-------4---||
|-----3-------3---|-----3-------3---|-----3-------3---|-----3-------3---||
|---------5-5-----|---------5-5-----|---------5-5-----|---------5-5-----||
|-3-3-------------|-3-3-------------|-3-3-------------|-3-3-------------||


 Chorus
  C7                                  G7
  E E e e E E e E   E E e e E E e E   E E e E E E e E   E E e E E E e E
|-----------------|-----------------|-----------------|-----------------|
|-----------------|-----------------|-----------------|-----------------|
|-----3-------3---|-----3-------3---|-----4-------4---|-----4-------4---|
|-----2-2-----2---|-----2-2-----2---|-----3-------3---|-----3-------3---|
|-3-3-------------|-3-3-------------|---------5-5-----|---------5-5-----|
|---------3-3-----|---------3-3-----|-3-3-------------|-3-3-------------|


                                                       1.
  D7                C7                G7                D7
  E E e E E E e E   E E e e E E e E   E E e E E E e E   E Q  E +E  E E E
|-----------------|-----------------|-----------------|-------------------||
|-----------------|-----------------|-----------------|------------------o||
|-----5-------5---|-----3-------3---|-----4-------4---|---5--5-(5)-5-5-5--||
|-----4-------4---|-----2-2-----2---|-----3-------3---|---4--4-(4)-4-4-4--||
|-5-5-------------|-3-3-------------|---------5-5-----|-5-5--5-(5)-5-5-5-o||
|---------5-5-----|---------3-3-----|-3-3-------------|-------------------||


                     Interlude
  2.,D.S.
                                                                 To Coda
                      G7
  E Q  E +E  E E E    Q.   E Q.   E   E E E E E E E E   E E E E E E E E
|------------------||-3------3------|-3---3---3---3---|-3---3---3---3----||
|------------------||-6------6------|-6---6---6---6---|-6---6---6---6----||
|---5--5-(5)-5-5-5-||-4------4------|-4---4---4---4---|-4---4---4---4----||
|---4--4-(4)-4-4-4-||-3------3------|-3---3---3---3---|-3---3---3---3----||
|-5-5--5-(5)-5-5-5-||-5------5------|-5---5---5---5---|-5---5---5---5----||
|------------------||-3------3------|-3---3---3---3---|-3---3---3---3----||


 Sax Solo
  G7
  E  E e e  E      E  e E   E E e E  E    E    e    E
|-------------------------|-----------------------------|
|-------------------------|-----------------------------|
|------4-4------------4---|-----4--------------4--------|
|------3-3------------3---|-----3--------------3--------|
|-----------5------5------|----------5----5-------------|
|-3--3--------------------|-3-3-------------------------|
|
| Gtr II
|                     ~
| Q    E E  E     +E  Q     E E E E  E    S S  E    S S
|-------------------------|-----------------------------|
|-8\-----8-10b11r(10)-8---|---8---8-------8-8-------8-8-|
|-------------------------|---------10b12-----10b12-----|
|-------------------------|-----------------------------|
|-------------------------|-----------------------------|
|-------------------------|-----------------------------|


   E    E    e    E    E         E e e   E E     e e E       E e E
|--------------------------------------|----------------------------|
|--------------------------------------|----------------------------|
|------------4---------------------4-4-|---------4-4-----------4-4--|
|------------3---------------------3-3-|---------3-3-----------3-3--|
|-----------------5----5---------5-----|-------------5-------5---5--|
|--3----3------------------------------|-3-3------------------------|
|
|                                  ~                           ~
|                                          |-3-|
|  E    S S  E    S S  S     +S  E Q     E S S S E E S E.      Q
|--------------------------------------|---8p7p6--------------------|
|-------8-8-------8-8-10b11r(10)p8-8---|---------8p6----------------|
|-10b12-----10b12----------------------|-------------7--------------|
|--------------------------------------|---------------8b8.5---5----|
|--------------------------------------|----------------------------|
|--------------------------------------|----------------------------|


  C7
  E E e e E E e e   E E e e  E         E e E
|-----------------|--------------------------|
|-----------------|--------------------------|
|-----3-3-----3-3-|-----3-3--------------3---|
|-----2-2-----2-2-|-----2-2--------------2---|
|-3-3-------------|-3-3----------------------|
|---------3-3-----|----------3---------3-----|
|
|                                        ~
| E E E E E E E E   E E E E  S     +S  E Q
|-----------------|--------------------------|
|-------------6---|---8-8-8-10b11r(10)p8-8---|
|-------5-7-----7-|--------------------------|
|---5-8-----------|--------------------------|
|-----------------|--------------------------|
|-----------------|--------------------------|


  G7
  E E e E E E e E   E E e E E  E    e  E
|-----------------|------------------------|
|-----------------|------------------------|
|-----4-------4---|-----4-----------4------|
|-----3-------3---|-----3-----------3------|
|---------5-5-----|---------5--5-----------|
|-3-3-------------|-3-3--------------------|
|
|         ~                         ~~~
| E E E E Q   Q     E E E E E.   S +Q
|-----------------|------------------------|
|---8-------------|------------------------|
|-----7-----------|-------5-6----7-(7)-----|
|---------8---5---|---5-8------------------|
|-----------------|------------------------|
|-----------------|------------------------|


  D7                 C7
  E E e e E E e  E   E  E e e  E      E  e E
|------------------|-------------------------|
|------------------|-------------------------|
|-----5-------5----|------3-3------------3---|
|-----4-4-----4----|------2-2------------2---|
|-5-5--------------|-3--3--------------------|
|---------5-5------|-----------3------3------|
|
|                                        ~
| E E E E E E E  E   E  E E E  E     +E  Q
|---------9---7----|-------------------------|
|---------------10-|--------8-10b11r(10)-8---|
|---7---7----------|------9------------------|
|------------------|---10--------------------|
|------------------|-------------------------|
|------------------|-------------------------|


                                                             D.S. al Coda &
  G7                                                    D7                   G7
   E         E  e         E  E         E  e         E   E E  E E Q   e E     e E Q  H
|-----------------------------------------------------|-------------------||-3-----------*|
|-----------------------------------------------------|-------------------||-6-----------*|
|---------------4-------------------------4-----------|---5--5-5-----5----||-4-----------*|
|---------------3-------------------------3-----------|---4--4-4-----4----||-3-----------*|
|----------------------------5---------5--------------|-5-5--5-5-5---5----||-5-----------*|
|--3---------3----------------------------------------|-------------------||-3-----------*|
|
|  S     +S  e  S     +S  e  S     +S  e  S     +S  e   E E  E E Q   E E     W
|-----------------------------------------------------|-------------------||-------------*|
|-10b11r(10)p8-10b11r(10)p8-10b11r(10)p8-10b11r(10)p8-|---8---------------||-------------*|
|-----------------------------------------------------|-7-----------------||-------------*|
|-----------------------------------------------------|-----10-8----------||-------------*|
|-----------------------------------------------------|----------8-----8--||-------------*|
|-----------------------------------------------------|-------------10----||-------------*|            
Submit corrections

↑ Back to top | Tablatures and chords for acoustic guitar and electric guitar, ukulele, drums are parodies/interpretations of the original songs. You may use it for private study, scholarship, research or language learning purposes only