» » »

Sam Smith - Im Not The Only One Tabs

Artists:  A B C D E F G H I J K L M N O P Q R S T U V W X Y Z # 

Im Not The Only One Tabs

(ver. 2) Click to play this song!
Sam Smith
 Rating:
4.2/5 (24 votes)

 Im Not The Only One  lessons Tabs too difficult? Try these video lessons and learn fast
 
                [Verse]
(you and me..)            (for better or..)    (Icant believe..)
e|---------------------------------------------------------------------------|
B|--------3--------------------------3------------------3--------------------|
G|--2--5----5--2--0-----------2---5-----5--2------2--5-----5--2--0-----------|
D|-------------------3-----3-------------------3--------------------3--------|
A|---------------------------------------------------------------------------|
E|---------------------------------------------------------------------------| 

(but the proof..)  (in the way..) (it hurts..)
e|---------------------------------------------------------------------------|
B|---------------------------------------------------------------------------|
G|-----0--2-----------2--0---------------------------------------------------| (x2)
D|--3--------------3---------------3----------3------------------------------|
A|---------------------------------------------------------------------------|
E|---------------------------------------------------------------------------| 

(you sayy) (im crazy)      (because you..)            (but when..)(you call..)
e|---5-----4h5---3--1---------1-1-1-1---0-0-0-1r0---------5---------5-6-5-3-1|
B|-6------------------3----1----------------------3----1---------------------|
G|---------------------------------------------------------------------------|
D|---------------------------------------------------------------------------|
A|---------------------------------------------------------------------------|
E|---------------------------------------------------------------------------|

(i know im not...)
e|-1--5--8--5--1--3-3--1-----------------------------------------------------|
B|---------------------------------------------------------------------------|
G|---------------------------------------------------------------------------|
D|---------------------------------------------------------------------------|
A|---------------------------------------------------------------------------|
E|---------------------------------------------------------------------------|

[Verse]
e|---------------------------------------------------------------------------|
B|--------3--------------------------3------------------3--------------------|
G|--2--5----5--2--0-----------2---5-----5--2------2--5-----5--2--0-----------|
D|-------------------3-----3-------------------3--------------------3--------|
A|---------------------------------------------------------------------------|
E|---------------------------------------------------------------------------|

e|---------------------------------------------------------------------------|
B|---------------------------------------------------------------------------|
G|-----0--2-----2--0---------------------------------------------------------|
D|--3--------3-------3-----3-------------------------------------------------|
A|---------------------------------------------------------------------------|
E|---------------------------------------------------------------------------|

e|---5-----4h5---3--1---------1-1-1-1---0-0-0-1r0---------5-----5-6-5-3-1----|
B|-6------------------3----1----------------------3----1---------------------|
G|---------------------------------------------------------------------------|
D|---------------------------------------------------------------------------|
A|---------------------------------------------------------------------------|
E|---------------------------------------------------------------------------|

e|-1--5--8--5--1--3-3--1-----------------------------------------------------|
B|---------------------------------------------------------------------------|
G|---------------------------------------------------------------------------|
D|---------------------------------------------------------------------------|
A|---------------------------------------------------------------------------|
E|---------------------------------------------------------------------------|

(i have loved..)               (maybe i am just not...)
e|--5-5-5-3-1-3----------------5-5-5-5--5-5-5-3s1----------------------------|
B|--------------3--6---------------------------------------------------------|
G|---------------------------------------------------------------------------|
D|---------------------------------------------------------------------------|
A|---------------------------------------------------------------------------|
E|---------------------------------------------------------------------------|

(youve made me...)     (by lying and..)
e|---5-5-5-3-1-3---------5-5-----5-3-1-3-------------------------------------|
B|-6-------------3-6---6------6----------------------------------------------|
G|---------------------------------------------------------------------------|
D|---------------------------------------------------------------------------|
A|---------------------------------------------------------------------------|
E|---------------------------------------------------------------------------|

e|---5-----4h5---3--1---------1-1-1-1---0-0-0-1r0---------5-----5-6-5-3-1----|
B|-6------------------3----1----------------------3----1---------------------|
G|---------------------------------------------------------------------------|
D|---------------------------------------------------------------------------|
A|---------------------------------------------------------------------------|
E|---------------------------------------------------------------------------|

e|-1--5--8--5--1--3-3--1-----------------------------------------------------|
B|---------------------------------------------------------------------------|
G|---------------------------------------------------------------------------|
D|---------------------------------------------------------------------------|
A|---------------------------------------------------------------------------|
E|---------------------------------------------------------------------------|

e|---5-----4h5---3--1---------1-1-1-1---0-0-0-1r0---------5-----5-6-5-3-1----|
B|-6------------------3----1----------------------3----1---------------------|
G|---------------------------------------------------------------------------|
D|---------------------------------------------------------------------------|
A|---------------------------------------------------------------------------|
E|---------------------------------------------------------------------------|

e|-1--5--8--5--1--3-3--1--------1--5--8--5--1-3-3-1--------------------------|
B|---------------------------------------------------------------------------|
G|---------------------------------------------------------------------------|
D|---------------------------------------------------------------------------|
A|---------------------------------------------------------------------------|
E|---------------------------------------------------------------------------|

                                  (and i know and i know....)
e|-1--5--8--5--1-3-3-1------------8-8-8---6-6-6--5-5-5--3-3-3--1-3-5-1-------|
B|---------------------------------------------------------------------------|
G|---------------------------------------------------------------------------|
D|---------------------------------------------------------------------------|
A|---------------------------------------------------------------------------|
E|---------------------------------------------------------------------------|

e|-1--5--8--5--1--3-3--1-----------------------------------------------------|
B|---------------------------------------------------------------------------|
G|---------------------------------------------------------------------------|
D|---------------------------------------------------------------------------|
A|---------------------------------------------------------------------------|
E|---------------------------------------------------------------------------|            
Submit corrections


        Im Not The Only One  lessons Hard to play? Try these video lessons and learn fast Im Not The Only One  lessons
        
↑ Back to top | Tablatures and chords for acoustic guitar and electric guitar, ukulele, drums are parodies/interpretations of the original songs. You may use it for private study, scholarship, research or language learning purposes only