» » »

Rivers Cuomo - I Was Made For You Tabs

Artists:  A B C D E F G H I J K L M N O P Q R S T U V W X Y Z # 

I Was Made For You Tabs

(ver. 2) Click to play this song!
Rivers Cuomo
 Rating:
4/5 (4 votes)

 I Was Made For You lessons Tabs too difficult? Try these video lessons and learn fast
 
                I was made for you
Off of Alone: The Home Recordings of Rivers Cuomo     

standard tuning
_____________________________________________________________________________

Intro:   Bbm D# Ab Fm

E:------------------------------------------|
B:-13-13-14-11-9-11-----11-11-13-9-8-9------|
G:------------------------------------------|
D:------------------------------------------|
A:------------------------------------------|
E:------------------------------------------|


E:------------------------------------------|
B:-13-13-14-11-9-11-----11-11-13-9-8-9------|
G:------------------------------------------|
D:------------------------------------------|
A:------------------------------------------|
E:------------------------------------------|

Verse:

Ab   Db    x2

Ab                         Bbm
Little one, how long I've waited here

D#                  Ab
Waited for so many lonely years

Ab                Bbm
Nobody ever could make me smile

D#                             Ab
'Till you came round with your pretty style

Fm
And I will love you so, and I will love you so


Chorus:


Bbm                     D#        Ab             Fm
'Cause I was made for you, and you were made for me

Bbm                 D#     Ab                     Fm
And that is all i know, you're all that I can see

Bbm            D#
'Cause I was made for loving you

    c                   Fm
And all the little things you do

Bbm              D#         Ab
Remind me who I am inside



Verse:

Ab                   Bbm
Happiness is such a fickle thing

D#                        Ab
Nothing compared to what you can bring

Ab                        Bbm
You can bring meaning to what I do

D#                     Ab
That is why I want to be with you


Fm
And I will love you so, and I will love you so

Chorus:

Bbm                     D#        Ab             Fm
'Cause I was made for you, and you were made for me

Bbm                 D#     Ab                     Fm
And that is all i know, you're all that I can see

Bbm            D#
'Cause I was made for loving you

    c                     Fm
And all the little things you do

Bbm              D#         Ab
Remind me who I am inside


Bridge:

C  Db        C     Db
My darling, I need you

C  Db      D#          A
I'd give myself to please you

C  Db       C  Db
My darling, I need you

C   Db     Db     Ab
I want you to be mine

Solo:

Chords: Ab Bbm D# Ab


E|--------------11------------------------------------------|
A|-11b(13b)9-9-------13-13-13-14-11----9-11h-9-11h-9-11h----|
D|--------------------------------------------------------12|
G|----------------------------------------------------------|
B|----------------------------------------------------------|
E|----------------------------------------------------------|



E|----------------------------------------------15b(16)-----|
A|----14b-(16)--13-14h-13-11-11-13-13-----13----------------|
D|-12-------------------------------------------------------|
G|----------------------------------------------------------|
B|----------------------------------------------------------|
E|----------------------------------------------------------|


Bbm                     D#        Ab             Fm
'Cause I was made for you, and you were made for me

Bbm                 D#     Ab                     Fm
And that is all i know, you're all that I can see

Bbm            D#
'Cause I was made for loving you

    C                     Fm
And all the little things you do

Bbm              D#         Ab
Remind me who I am inside

Bbm              D#         Ab
Remind me who I am inside
            
Submit corrections


        I Was Made For You lessons Hard to play? Try these video lessons and learn fast I Was Made For You lessons
        
↑ Back to top | Tablatures and chords for acoustic guitar and electric guitar, ukulele, drums are parodies/interpretations of the original songs. You may use it for private study, scholarship, research or language learning purposes only