» » »

Rivers Cuomo - I Was Made For You Tabs

Artists:  A B C D E F G H I J K L M N O P Q R S T U V W X Y Z # 

I Was Made For You Tabs

(ver. 1) Click to play this song!
Rivers Cuomo
 Rating:
4.4/5 (7 votes)

 I Was Made For You lessons Tabs too difficult? Try these video lessons and learn fast
 
                Off of Alone: The Home Recordings of Rivers Cuomo...

Intro:   B E A F#

E:------------------------------------------|
B:-14-14-15-12-10-12----12-12--14-10-9-10---|
G:------------------------------------------|
D:------------------------------------------|
A:------------------------------------------|
E:------------------------------------------|


E:------------------------------------------|
B:-14-14-15-12-10-12----12-12--14-10-9-10---|
G:------------------------------------------|
D:------------------------------------------|
A:------------------------------------------|
E:------------------------------------------|

Verse:

A

A                         B
Little one, how long I've waited here

E                  A
Waited for so many lonely years

A                B
Nobody eve could make me smile

E                             A
'Till you came round with your pretty style

F#
And I will love you so, and I will love you so


Chorus:


B                     E        A             F#
'Cause I was made for you, and you were made for me

B                 E     A                     F#
And that is all i know, you're all that I can see

B            E
'Cause I was made for loving you

    C#                   F#
And all the little things you do

B              E         A
Remind me who I am inside

Octaves in background:

E:--------------------------------------------------------|
B:--------------------------------------------------------|
G:14-14-14-14-13-13-13-13-14-14-14-14-14-14-14-14 repeat--| 2x
D:--------------------------------------------------------|
A:12-12-12-12-11-11-11-11-12-12-12-12-12-12-12-12---------|
E:--------------------------------------------------------|

E:------------------------------------------------|
B:------------------------------------------------|
G:14-14-14-14-13-13-13-13-18-18-18-18-16-16-16-16-|
D:------------------------------------------------|
A:12-12-12-12-11-11-11-11-16-16-16-16-14-14-14-14-|
E:------------------------------------------------|

E:------------------------------------------------|
B:------------------------------------------------|
G:14-14-14-14-13-13-13-13-14-14-14-14-14-14-14-14-|
D:------------------------------------------------|
A:12-12-12-12-11-11-11-11-12-12-12-12-12-12-12-12-|
E:------------------------------------------------|

Verse:

A                   B
Happiness is such a fickle thing

E                        A
Nothing compared to what you can bring

A                        B
You can bring meaning to what I do

E                     A
That is why I want to be with you


F#
And I will love you so, and I will love you so

Chorus:

B                     E        A             F#
'Cause I was made for you, and you were made for me

B                 E     A                     F#
And that is all i know, you're all that I can see

B            E
'Cause I was made for loving you

    C#                   F#
And all the little things you do

B              E         A
Remind me who I am inside


Bridge:

C# D        C#     D
My darling, I need you

C#  D      E          A
I'd give myself to please you

C#  D       C#  D
My darling, I need you

C#  D         B   A
I want you to be mine

Solo:

Chords: A B E A


E:------------------------------------------------|
B:-14-14h15-10v-/17v-14-14h15-12v-10h12-9h10h9h10-|
G:------------------------------------------------|
D:------------------------------------------------|
A:------------------------------------------------|
E:------------------------------------------------|

E:--------------------------17vvvv----------|
B:9v-/17v-15-14-14h15-10v-------------------|
G:------------------------------------------|
D:------------------------------------------|
A:------------------------------------------|
E:------------------------------------------|



B                     E        A             F#
'Cause I was made for you, and you were made for me

B                 E     A                     F#
And that is all i know, you're all that I can see

B            E
'Cause I was made for loving you

    C#                   F#
And all the little things you do

B              E         A
Remind me who I am inside
            
Submit corrections


        I Was Made For You lessons Hard to play? Try these video lessons and learn fast I Was Made For You lessons
        
↑ Back to top | Tablatures and chords for acoustic guitar and electric guitar, ukulele, drums are parodies/interpretations of the original songs. You may use it for private study, scholarship, research or language learning purposes only