» » »

Red Hot Chili Peppers - We Turn Red Tabs

Artists:  A B C D E F G H I J K L M N O P Q R S T U V W X Y Z # 

We Turn Red Tabs

(ver. 2) Click to play this song!
Red Hot Chili Peppers
 Rating:
4.3/5 (25 votes)

 We Turn Red  lessons Tabs too difficult? Try these video lessons and learn fast
 
                [Intro]

e|---------------------------------------------------------------------------|
B|---------------------------------------------------------------------------|
G|---------------------------------------------------------------------------|
D|---------------------------------------------------------------------------| x4
A|---3-1h3-3-3---1h3-3-3---1h3-3-3---1h3-3-3---1h3-3-3---1h3-3-3---1h3-3-3---|
E|---------------------------------------------------------------------------|


[Verse]

e|---------------------------------------------------------------------------|
B|---------------------------------------------------------------------------|
G|---------------------------------------------------------------------------|
D|------------------------------10-10--10-x-8-8------------------------------| x6
A|---8-10xx-8-10-10-x-8-8--8-10xx--------------------------------------------|
E|---------------------------------------------------------------------------|
    (---------------with wah----------------)


[Chorus]

Here is the back ground melody part. There are also chords that go over but 
I'm not sure which chords they are.

e|---------------------------------------------------------------------------|
B|------6-----------6--------------------------------------------------------|
G|----7---7---7---7---6---7-------7-------------7----------------------------|
D|--8-------8---8-------8-------8---8----8----8---8----8---------------------|
A|---------------------------10-------10---10-------10-----------------------|
E|---------------------------------------------------------------------------|
                                                 
e|---------------------------------------------------------------------------|
B|-----------10----------------10---------------8-------------8--------------|
G|--------10----10----10----10----10----10----9---9----9----9---9----9-------|
D|-----10----------10----10----------10----10-------10---10-------10---------|
A|---------------------------------------------------------------------------|
E|---------------------------------------------------------------------------|


[Verse 2]

Put more distortion and turn off wah

e|---------------------------------------------------------------------------|
B|---------------------------------------------------------------------------|
G|---------------------------------------------------------------------------|
D|------------------------------10-10--10-x-8-8------------------------------| x6
A|---8-10xx-8-10-10-x-8-8--8-10xx--------------------------------------------|
E|---------------------------------------------------------------------------|


[Chorus 2]
                                    
e|---------------------------------------------------------------------------|
B|------6-----------6--------------------------------------------------------|
G|----7---7---7---7---6---7-------7-------------7----------------------------|
D|--8-------8---8-------8-------8---8----8----8---8----8---------------------|
A|---------------------------10-------10---10-------10-----------------------|
E|---------------------------------------------------------------------------|
                                                 
e|---------------------------------------------------------------------------|
B|-----------10----------------10---------------8-------------8--------------|
G|--------10----10----10----10----10----10----9---9----9----9---9----9-------|
D|-----10----------10----10----------10----10-------10---10-------10---------|
A|---------------------------------------------------------------------------|
E|---------------------------------------------------------------------------|


[Solo]

Use slider and turn on a lot of reverb (chorus is playing in background)

e|-----------------------------16/14\16\1816/14\16---16\18--18/15\17--17/12--12\13\15---|
B|--------------------------------------------------------------------------------------|
G|--7\10---10\15---15\19-17\19----------------------------------------------------------|
D|--------------------------------------------------------------------------------------|
A|--------------------------------------------------------------------------------------|
E|--------------------------------------------------------------------------------------|


[Outro]

e|---------------------------------------------------------------------------|
B|---------------------------------------------------------------------------|
G|---------------------------------------------------------------------------|
D|---------------------------------------------------------------------------| x4
A|---3-1h3-3-3---1h3-3-3---1h3-3-3---1h3-3-3---1h3-3-3---1h3-3-3---1h3-3-3---|
E|---------------------------------------------------------------------------|            
Submit corrections


        We Turn Red  lessons Hard to play? Try these video lessons and learn fast We Turn Red  lessons
        
↑ Back to top | Tablatures and chords for acoustic guitar and electric guitar, ukulele, drums are parodies/interpretations of the original songs. You may use it for private study, scholarship, research or language learning purposes only