» » »

Red Hot Chili Peppers - We Turn Red Tabs

Artists:  A B C D E F G H I J K L M N O P Q R S T U V W X Y Z # 

We Turn Red Tabs

(ver. 1) Click to play this song!
Red Hot Chili Peppers
 Rating:
4.3/5 (25 votes)

 We Turn Red  lessons Tabs too difficult? Try these video lessons and learn fast
 
                                                 [VERSE 1]

[Guitar 1 Clean+Neck position](0:06)

e|---------------------------------------------------------------------------|
B|---------------------------------------------------------------------------|
G|---------------------------------------------------------------------------|
D|---------------------------------------------------------------------------|
A|---------------------------------------------------------------------------|
E|------6h8-8-8--6h8-8-8--6h8-8-8--6h8-8-8--6h8-8-8--6h8-8-8--6h8-8-8--------|
                                                                                 x2
e|---------------------------------------------------------------------------|
B|---------------------------------------------------------------------------|
G|---------------------------------------------------------------------------|
D|---------------------------------------------------------------------------|
A|---------------------------------------------------------------------------|
E|-----8g-6h8-8-8--6h8-8-8--6h8-8-8--6h8-8-8--6h8-8-8--6h8-8-8--6h8-8-8------|


                                 [VERSE 2]

[Guitar 1 Slightly distorted w/ some Low Pass Filter Middle+Brigde position] Right Speaker (0:29)

e|---------------------------------------------------------------------------|
B|---------------------------------------------------------------------------|
G|-----------------------------------5-5-5-3-3b------------------------------|
D|--x-3-5--x-3-x-5-x-x-3h5--x-x-3-5------------------------------------------| x6
A|---------------------------------------------------------------------------|
E|---------------------------------------------------------------------------|

[Guitar 2 some Chorus and Reverb+Middle position]

         Gm                       Gm6
e|---------------------------------------------------------------------------|
B|-------3-----------3--3----------5---------5-------------------------------|
G|-------3-----------3--3----------3---------3-------------------------------| x2
D|-------5-----------5--5----------5---------5-------------------------------|
A|---------------------------------------------------------------------------|
E|---------------------------------------------------------------------------|


                                  [CHORUS]

[Guitar 1 Clean+Bridge position+Swelling volume] (1:04)
      Bb      Gm      Dm      C
e|----6-------3-------5-------8----------------------------------------------|
B|----6-------3-------6-------8----------------------------------------------|
G|----7-------3-------7-------9----------------------------------------------|
D|----8-------5-------7-------10---------------------------------------------| x2
A|----x-------x-------5-------x----------------------------------------------|
E|----6-------3---------------8----------------------------------------------|
      T       T               T
[Acoustic Guitar] (1:16)

                      Bb                              Gm
e|----------------------------------------6-------6-------6-------6-----------|
B|-------6-------6-------6-------6------3-------3-------3-------3-------------|
G|-----7-------7-------7-------7------3-------3-------3-------3---------------|
D|---8-------8-------8-------8------------------------------------------------|
A|----------------------------------------------------------------------------|
E|----------------------------------------------------------------------------|

              Dm7                                                 C
e|-------------------------------------------------------------------------------------|
B|-----------10-------10--------8-10~---8--------------8--------8----------------------|
G|--------10-------10--------10-----------10~--------9--------9-------9--7-9~---7------|
D|-----10-------10-------10-----------------------10-------10------10-------------10~--|
A|-------------------------------------------------------------------------------------|
E|-------------------------------------------------------------------------------------|


                                     [VERSE 3]

[Guitar 1 Slightly distorted w/ some Low Pass Filter Middle+Brigde position] Right Speaker (1:27)
e|---------------------------------------------------------------------------|
B|---------------------------------------------------------------------------|
G|-----------------------------------5-5-5-3-3b------------------------------|
D|--x-3-5--x-3-x-5-x-x-3h5--x-x-3-5------------------------------------------| x6
A|---------------------------------------------------------------------------|
E|---------------------------------------------------------------------------|

[Guitar 2 Distorted+Middle position] Left Speaker (1:27)
e|---------------------------------------------------------------------------|
B|---------------------------------------------------------------------------|
G|-----------------------------------5555--3~~-------------------------------|
D|--x-3-5--x-3-x-5-x-x-3h5--x-x-3-5--5555--3~~-------------------------------| x4
A|--x-3-5--x-3-x-5-x-x-3h5--x-x-3-5------------------------------------------|
E|---------------------------------------------------------------------------|


[Guitar 2 some Chorus and Reverb+Middle position] (1:51)
         Gm                       Gm6
e|---------------------------------------------------------------------------|
B|-------7-----------8--8----------8---------8-------------------------------|
G|-------7-----------7--7----------9---------9-------------------------------| x2
D|-------8-----------8--8----------8---------8-------------------------------|
A|---------------------------------------------------------------------------|
E|---------------------------------------------------------------------------|


                                     [CHORUS]

[Guitar 1 Clean+Bridge position+Swelling volume] (2:03)
      Bb      Gm      Dm      C
e|----6-------3-------5-------8----------------------------------------------|
B|----6-------3-------6-------8----------------------------------------------|
G|----7-------3-------7-------9----------------------------------------------| x4
D|----8-------5-------7-------10---------------------------------------------|
A|----x-------x-------5-------x----------------------------------------------|
E|----6-------3---------------8----------------------------------------------|
      T       T               T


[Acoustic Guitar] (2:14)

                      Bb                              Gm
e|----------------------------------------6-------6-------6-------6-----------|
B|-------6-------6-------6-------6------3-------3-------3-------3-------------|
G|-----7-------7-------7-------7------3-------3-------3-------3---------------|
D|---8-------8-------8-------8------------------------------------------------|
A|----------------------------------------------------------------------------|
E|----------------------------------------------------------------------------|

              Dm7                                                 C                           
e|-------------------------------------------------------------------------------------|
B|-----------10-------10--------8-10~---8--------------8--------8----------------------|
G|--------10-------10--------10-----------10~--------9--------9-------9--7-9~---7------|
D|-----10-------10-------10-----------------------10-------10------10-------------10~--| x3
A|-------------------------------------------------------------------------------------|
E|-------------------------------------------------------------------------------------|


[Lap steel guitar Chorus+Reverb] (2:25) Left Speaker

e|----------------------------------15~~---17\13~~-------18~~---18\--17\--13-13/17-17---17\15\12~~--|
B|--1/6~~---6/11~~---11/15~~---13/15---------------15/18--------------------------------------------|
G|--------------------------------------------------------------------------------------------------|
D|--------------------------------------------------------------------------------------------------|
A|--------------------------------------------------------------------------------------------------|
E|--------------------------------------------------------------------------------------------------|


                                  [VERSE 1]

[Guitar 1 Clean+Neck position](2:50)
e|---------------------------------------------------------------------------|
B|---------------------------------------------------------------------------|
G|---------------------------------------------------------------------------|
D|---------------------------------------------------------------------------|
A|---------------------------------------------------------------------------|
E|------6h8-8-8--6h8-8-8--6h8-8-8--6h8-8-8--6h8-8-8--6h8-8-8--6h8-8-8--------|
                                                                                 x2
e|---------------------------------------------------------------------------|
B|---------------------------------------------------------------------------|
G|---------------------------------------------------------------------------|
D|---------------------------------------------------------------------------|
A|---------------------------------------------------------------------------|
E|-----8g-6h8-8-8--6h8-8-8--6h8-8-8--6h8-8-8--6h8-8-8--6h8-8-8--6h8-8-8------|

e|---------------------------------------------------------------------------|
B|---------------------------------------------------------------------------|
G|---------------------------------------------------------------------------|
D|---------------------------------------------------------------------------|
A|---------------------------------------------------------------------------|
E|-----8g-6h8-8-8--6h8-8-8--6h8-8-8--6h8-8-8--6h8-8-8--6h8-8-8--6h8-8-8------|            
Submit corrections


        We Turn Red  lessons Hard to play? Try these video lessons and learn fast We Turn Red  lessons
        
↑ Back to top | Tablatures and chords for acoustic guitar and electric guitar, ukulele, drums are parodies/interpretations of the original songs. You may use it for private study, scholarship, research or language learning purposes only