» » »

Red Hot Chili Peppers - The Getaway Tabs

Artists:  A B C D E F G H I J K L M N O P Q R S T U V W X Y Z # 

The Getaway Tabs

(ver. 2) Click to play this song!
Red Hot Chili Peppers
 Rating:
4.3/5 (20 votes)

 The Getaway  lessons Tabs too difficult? Try these video lessons and learn fast
 
                [Intro]

PM- - - - - - - - - - - - - - - - - - -
e|------------------------------------|
B|------------------------------------|
G|------------------------------------|
D|------------------------------------|
A|-12-12--10-12-10---12--12--10-12-10-|
E|------------------------------------|


[Verse]

PM- - - - - - - - - - - - - - - - - -
e|------------------------------------|
B|------------------------------------|
G|------------------------------------|
D|------------------------------------|
A|-12-12--10-12-10---12--12--10-12-10-|
E|------------------------------------|

PM- - - - - - - - - - - - - - - - - - -
e|------------------------------------|
B|------------------------------------|
G|------------------------------------|
D|-19-19--17-19-19---19--19--17-19-17-|
A|------------------------------------|
E|------------------------------------| (Slightly diffrent picking pattern)


[Chorus]


[guitar 1]

PM- - - - - - - - - - - - - - - - - - - - -
e|----------------------------------------|
B|----------------------------------------|
G|----------------------------------------|
D|----------------------------------------|
A|-17-17--15-17-15--19--19-19--17-17--15--|
E|----------------------------------------|


[guitar 2] Neck pickup!

e|----------------------------------------|----------------------------------------|
B|-18~---------------------20---------17~-|----------------------18----------------|
G|----------------------------------------|----------------------------------17----|
D|----------------------------------------|----------------------------------------|
A|----------------------------------------|----------------------------------------|
E|----------------------------------------|----------------------------------------|

e|----------------------------------------|----------------------------------------|
B|---15h17--p15~--------------------------|---------15~----------------------------|
G|------------------------------------17--|-----------------------------------17---|
D|----------------------------------------|----------------------------------------|
A|----------------------------------------|----------------------------------------|
E|----------------------------------------|----------------------------------------|

e|----------------------------------------|----------------------------------------|
B|-18~---------------------20---------17~-|----------------------18----------------|
G|----------------------------------------|----------------------------------17----|
D|----------------------------------------|----------------------------------------|
A|----------------------------------------|----------------------------------------|
E|----------------------------------------|----------------------------------------|

e|----------------------------------------|----------------------------------------|
B|---15~----------------------------------|---------15~----------------------------|
G|------------------------------------17--|-----------------------------------17---|
D|----------------------------------------|----------------------------------------|
A|----------------------------------------|----------------------------------------|
E|----------------------------------------|----------------------------------------|

e|----------------------------------------|----------------------------------------|
B|-18~---------------------20---------17~-|----------------------18----------------|
G|----------------------------------------|----------------------------------17----|
D|----------------------------------------|----------------------------------------|
A|----------------------------------------|----------------------------------------|
E|----------------------------------------|----------------------------------------|

e|----------------------------------------|----------------------------------------|
B|---15h17--p15~--------------------------|---------15~----------------------------|
G|------------------------------------17--|-----------------------------------17---|
D|----------------------------------------|----------------------------------------|
A|----------------------------------------|----------------------------------------|
E|----------------------------------------|----------------------------------------|

e|----------------------------------------|----------------------------------------|
B|-18~---------------------20---------17~-|----------------------18----------------|
G|----------------------------------------|----------------------------------17----|
D|----------------------------------------|----------------------------------------|
A|----------------------------------------|----------------------------------------|
E|----------------------------------------|----------------------------------------|

e|----------------------------------------|----------------------------------------|
B|---15~----------------------------------|---------15~----------------------------|
G|------------------------------------17--|-----------------------------------17---|
D|----------------------------------------|----------------------------------------|
A|----------------------------------------|----------------------------------------|
E|----------------------------------------|----------------------------------------|

e|----------------------------------------|
B|---17~----------------------------------|
G|----------------------------------------|
D|----------------------------------------|
A|----------------------------------------|
E|----------------------------------------|


[Verse]

PM- - - - - - - - - - - - - - - - - -
e|------------------------------------|
B|------------------------------------|
G|------------------------------------|
D|------------------------------------|
A|-12-12--10-12-10---12--12--10-12-10-|
E|------------------------------------|

PM- - - - - - - - - - - - - - - - - - -
e|------------------------------------|
B|------------------------------------|
G|------------------------------------|
D|-19-19--17-19-19---19--19--17-19-17-|
A|------------------------------------|
E|------------------------------------| (Slightly diffrent picking pattern)


[Chorus]


[guitar 1]

PM- - - - - - - - - - - - - - - - - - - - -
e|----------------------------------------|
B|----------------------------------------|
G|----------------------------------------|
D|----------------------------------------|
A|-17-17--15-17-15--19--19-19--17-17--15--|
E|----------------------------------------|


[guitar 2] Neck pickup!

e|----------------------------------------|----------------------------------------|
B|-18~---------------------20---------17~-|----------------------18----------------|
G|----------------------------------------|----------------------------------17----|
D|----------------------------------------|----------------------------------------|
A|----------------------------------------|----------------------------------------|
E|----------------------------------------|----------------------------------------|

e|----------------------------------------|----------------------------------------|
B|---15h17--p15~--------------------------|---------15~----------------------------|
G|------------------------------------17--|-----------------------------------17---|
D|----------------------------------------|----------------------------------------|
A|----------------------------------------|----------------------------------------|
E|----------------------------------------|----------------------------------------|

e|----------------------------------------|----------------------------------------|
B|-18~---------------------20---------17~-|----------------------18----------------|
G|----------------------------------------|----------------------------------17----|
D|----------------------------------------|----------------------------------------|
A|----------------------------------------|----------------------------------------|
E|----------------------------------------|----------------------------------------|

e|----------------------------------------|----------------------------------------|
B|---15~----------------------------------|---------15~----------------------------|
G|------------------------------------17--|-----------------------------------17---|
D|----------------------------------------|----------------------------------------|
A|----------------------------------------|----------------------------------------|
E|----------------------------------------|----------------------------------------|

e|----------------------------------------|----------------------------------------|
B|-18~---------------------20---------17~-|----------------------18----------------|
G|----------------------------------------|----------------------------------17----|
D|----------------------------------------|----------------------------------------|
A|----------------------------------------|----------------------------------------|
E|----------------------------------------|----------------------------------------|

e|----------------------------------------|----------------------------------------|
B|---15h17--p15~--------------------------|---------15~----------------------------|
G|------------------------------------17--|-----------------------------------17---|
D|----------------------------------------|----------------------------------------|
A|----------------------------------------|----------------------------------------|
E|----------------------------------------|----------------------------------------|

e|----------------------------------------|----------------------------------------|
B|-18~---------------------20---------17~-|----------------------18----------------|
G|----------------------------------------|----------------------------------17----|
D|----------------------------------------|----------------------------------------|
A|----------------------------------------|----------------------------------------|
E|----------------------------------------|----------------------------------------|

e|----------------------------------------|----------------------------------------|
B|---15~----------------------------------|---------15~----------------------------|
G|------------------------------------17--|-----------------------------------17---|
D|----------------------------------------|----------------------------------------|
A|----------------------------------------|----------------------------------------|
E|----------------------------------------|----------------------------------------|

e|----------------------------------------|
B|---17~-------~--------------------------|
G|----------------------------------------|
D|----------------------------------------|
A|----------------------------------------|
E|----------------------------------------|


[Verse]

PM- - - - - - - - - - - - - - - - - -
e|------------------------------------|
B|------------------------------------|
G|------------------------------------|
D|------------------------------------|
A|-12-12--10-12-10---12--12--10-12-10-|
E|------------------------------------|

IMMEDIATELY MOVE ON TO NEXT VERSE

PM- - - - - - - - - - - - - - - - - - -
e|------------------------------------|
B|------------------------------------|
G|------------------------------------|
D|-19-19--17-19-19---19--19--17-19-17-|
A|------------------------------------|
E|------------------------------------| (Slightly diffrent picking pattern)


[Chorus]


[guitar 1]

PM- - - - - - - - - - - - - - - - - - - - -
e|----------------------------------------|
B|----------------------------------------|
G|----------------------------------------|
D|----------------------------------------|
A|-17-17--15-17-15--19--19-19--17-17--15--|
E|----------------------------------------|


[guitar 2] Neck pickup!

e|----------------------------------------|----------------------------------------|
B|-18~---------------------20---------17~-|----------------------18----------------|
G|----------------------------------------|----------------------------------17----|
D|----------------------------------------|----------------------------------------|
A|----------------------------------------|----------------------------------------|
E|----------------------------------------|----------------------------------------|

e|----------------------------------------|----------------------------------------|
B|---15h17--p15~--------------------------|---------15~----------------------------|
G|------------------------------------17--|-----------------------------------17---|
D|----------------------------------------|----------------------------------------|
A|----------------------------------------|----------------------------------------|
E|----------------------------------------|----------------------------------------|

e|----------------------------------------|----------------------------------------|
B|-18~---------------------20---------17~-|----------------------18----------------|
G|----------------------------------------|----------------------------------17----|
D|----------------------------------------|----------------------------------------|
A|----------------------------------------|----------------------------------------|
E|----------------------------------------|----------------------------------------|

e|----------------------------------------|----------------------------------------|
B|---15~-------~--------------------------|---------15~----------------------------|
G|------------------------------------17--|-----------------------------------17---|
D|----------------------------------------|----------------------------------------|
A|----------------------------------------|----------------------------------------|
E|----------------------------------------|----------------------------------------|

e|----------------------------------------|----------------------------------------|
B|-18~---------------------20---------17~-|----------------------18----------------|
G|----------------------------------------|----------------------------------17----|
D|----------------------------------------|----------------------------------------|
A|----------------------------------------|----------------------------------------|
E|----------------------------------------|----------------------------------------|

e|----------------------------------------|----------------------------------------|
B|---15h17--p15~--------------------------|---------15~----------------------------|
G|------------------------------------17--|-----------------------------------17---|
D|----------------------------------------|----------------------------------------|
A|----------------------------------------|----------------------------------------|
E|----------------------------------------|----------------------------------------|

e|----------------------------------------|----------------------------------------|
B|-18~---------------------20---------17~-|----------------------18----------------|
G|----------------------------------------|----------------------------------17----|
D|----------------------------------------|----------------------------------------|
A|----------------------------------------|----------------------------------------|
E|----------------------------------------|----------------------------------------|

e|----------------------------------------|----------------------------------------|
B|---15~----------------------------------|---------15~----------------------------|
G|------------------------------------17--|-----------------------------------17---|
D|----------------------------------------|----------------------------------------|
A|----------------------------------------|----------------------------------------|
E|----------------------------------------|----------------------------------------|

e|----------------------------------------|
B|---17~----------------------------------|
G|----------------------------------------|
D|----------------------------------------|
A|----------------------------------------|
E|----------------------------------------|


[Outro]


[guitar 1]

e|----------------------------------------|----------------------------------------|
B|----------------------------------------|----------------------------------------|
G|-10~---------------------12---------9---|----------------------------------------|
D|----------------------------------------|-----------12---10----------------14-14-|
A|----------------------------------------|----------------------------------------|
E|----------------------------------------|----------------------------------------|

e|----------------------------------------|----------------------------------------|
B|----------------------------------------|----------------------------------------|
G|-14-14--12-12-10-9----------------14-14-|-14-14--12-12-10-9----------------------|
D|--------------------12------------------|---------------------12-----------------|
A|----------------------------------------|----------------------------------------|
E|----------------------------------------|----------------------------------------|


[guitar 2]

e|----------------------------------------|----------------------------------------|
B|-10---------------------------------8---|----------------------------------------|
G|-10----------------------12---------9---|-----------7---5------------------------|
D|-10----------------------12---------10--|----------------------------------------|
A|-8-----------------------10---------10--|----------------------------------------|
E|------------------------------------8---|----------------------------------------|

e|----------------------------------------|----------------------------------------|
B|-6-6-6----------------------------------|----------------------------------------|
G|-7-7-7----------------------------------|----------------------------------------|
D|-7-7-7----------------------------------|----------------------------------------|
A|-5-5-5----------------------------------|----------------------------------------|
E|----------------------------------------|----------------------------------------|


(ONLY THE 2nd TIME with fill)

e|----------------------------------------|----------------------------------------|
B|-10---------------------------------8---|----------------------------------------|
G|-10----------------------12---------9---|-----------7---5------------------------|
D|-10----------------------12---------10--|----------------------------------------|
A|-8-----------------------10---------10--|----------------------------------------|
E|------------------------------------8---|----------------------------------------|

e|----------------------------------------|--------------10--------10--10----------|
B|-6-6-6----------------------------------|--------------10--------10--10----------|
G|-7-7-7----------------------------------|--------------10--------10--10----------|
D|-7-7-7----------------------------------|----------------------------------------|
A|-5-5-5----------------------------------|----------------------------------------|
E|----------------------------------------|----------------------------------------|


[End]


[guitar 1]

e|----------------------------------------|----------------------------------------|
B|----------------------------------------|----------------------------------------|
G|-10~---------------------12---------9---|----------------------------------------|
D|----------------------------------------|-----------12---10----------------14-14-|
A|----------------------------------------|----------------------------------------|
E|----------------------------------------|----------------------------------------|

e|----------------------------------------|----------------------------------------|
B|----------------------------------------|----------------------------------------|
G|-14-14--12-12-10-9----------------14-14-|-14-14~---------------------------------|
D|--------------------12------------------|----------------------------------------|
A|----------------------------------------|----------------------------------------|
E|----------------------------------------|----------------------------------------|            
Submit corrections


        The Getaway  lessons Hard to play? Try these video lessons and learn fast The Getaway  lessons
        
↑ Back to top | Tablatures and chords for acoustic guitar and electric guitar, ukulele, drums are parodies/interpretations of the original songs. You may use it for private study, scholarship, research or language learning purposes only